  0
SECTION
  2
HEADER
  9
$ACADVER
  1
AC1009
  9
$INSBASE
 10
0
 20
0
 30
0
  9
$EXTMIN
 10
0
 20
0
  9
$EXTMAX
 10
420
 20
297
  9
$LIMMIN
 10
0
 20
0
  9
$LIMMAX
 10
420
 20
297
  9
$LTSCALE
 40
1
  0
ENDSEC
  0
SECTION
  2
TABLES
  0
TABLE
  2
LTYPE
 70
     9
  0
LTYPE
  2
CONTINUOUS
 70
    64
  3
実線
 72
    65
 73
     0
 40
0.0
  0
LTYPE
  2
DASHED1
 70
    64
  3
--  --  --  --  --  --  --  --  
 72
    65
 73
     2
 40
2.5
 49
1.25
 49
-1.25
  0
LTYPE
  2
DASHED2
 70
    64
  3
----    ----    ----    ----    
 72
    65
 73
     2
 40
5.0
 49
2.5
 49
-2.5
  0
LTYPE
  2
DASHED3
 70
    64
  3
------  ------  ------  ------  
 72
    65
 73
     2
 40
5.0
 49
3.75
 49
-1.25
  0
LTYPE
  2
CENTER1
 70
    64
  3
----- - ----- - ----- - ----- - 
 72
    65
 73
     4
 40
10.0
 49
6.25
 49
-1.25
 49
1.25
 49
-1.25
  0
LTYPE
  2
CENTER2
 70
    64
  3
----------  --  ----------  --  
 72
    65
 73
     4
 40
20.0
 49
12.5
 49
-2.5
 49
2.5
 49
-2.5
  0
LTYPE
  2
PHANTOM1
 70
    64
  3
--- - - --- - - --- - - --- - - 
 72
    65
 73
     6
 40
10.0
 49
3.25
 49
-1.25
 49
1.25
 49
-1.25
 49
1.25
 49
-1.25
  0
LTYPE
  2
PHANTOM2
 70
    64
  3
--------  -  -  --------  -  -  
 72
    65
 73
     6
 40
20.0
 49
10.0
 49
-2.5
 49
1.25
 49
-2.5
 49
1.25
 49
-2.5
  0
LTYPE
  2
DOT
 70
    64
  3
-   -   -   -   -   -   -   -   
 72
    65
 73
     2
 40
2.5
 49
0.625
 49
-1.875
  0
LTYPE
  2
DUMMY
 70
    64
  3
ダミー
 72
    65
 73
     0
 40
0.0
  0
LTYPE
  2
RAND1
 70
    64
  3
ランダム線1
 72
    65
 73
     4
 40
10.0
 49
1.0
 49
-2.0
 49
3.0
 49
-4.0
  0
LTYPE
  2
RAND2
 70
    64
  3
ランダム線2
 72
    65
 73
     4
 40
14.0
 49
2.0
 49
-3.0
 49
4.0
 49
-5.0
  0
LTYPE
  2
RAND3
 70
    64
  3
ランダム線3
 72
    65
 73
     4
 40
18.0
 49
3.0
 49
-4.0
 49
5.0
 49
-6.0
  0
LTYPE
  2
RAND4
 70
    64
  3
ランダム線4
 72
    65
 73
     4
 40
22.0
 49
4.0
 49
-5.0
 49
6.0
 49
-7.0
  0
LTYPE
  2
RAND5
 70
    64
  3
ランダム線5
 72
    65
 73
     4
 40
26.0
 49
5.0
 49
-6.0
 49
7.0
 49
-8.0
  0
LTYPE
  2
LONG1
 70
    64
  3
----------  --  ----------  --  
 72
    65
 73
     4
 40
40.0
 49
32.5
 49
-2.5
 49
2.5
 49
-2.5
  0
LTYPE
  2
LONG2
 70
    64
  3
--------  -  -  --------  -  -  
 72
    65
 73
     6
 40
40.0
 49
30.0
 49
-2.5
 49
1.25
 49
-2.5
 49
1.25
 49
-2.5
  0
LTYPE
  2
LONG3
 70
    64
  3
+++++++++++++++..+++++++++++++++
 72
    65
 73
     2
 40
40.0
 49
37.5
 49
-2.5
  0
LTYPE
  2
LONG4
 70
    64
  3
+++++++++++++++..+++++++++++++++
 72
    65
 73
     2
 40
80.0
 49
75.0
 49
-5.0
  0
LTYPE
  2
LONG5
 70
    64
  3
----------  --  ----------  --  
 72
    65
 73
     4
 40
60.0
 49
37.5
 49
-7.5
 49
7.5
 49
-7.5
  0
LTYPE
  2
dashed
 70
   64
  3
-------   -------------   ------
 72
   65
 73
    2
 40
7.5
 49
6
 49
-1.5
  0
LTYPE
  2
dashed_spaced
 70
   64
  3
----        --------        ----
 72
   65
 73
    2
 40
12
 49
6
 49
-6
  0
LTYPE
  2
long_dashed_dotted
 70
   64
  3
------------- --- --------------
 72
   65
 73
    4
 40
15.25
 49
12
 49
-1.5
 49
0.25
 49
-1.5
  0
LTYPE
  2
long_dashed_double-dotted
 70
   64
  3
----------- --- --- ------------
 72
   65
 73
    6
 40
17
 49
12
 49
-1.5
 49
0.25
 49
-1.5
 49
0.25
 49
-1.5
  0
LTYPE
  2
long_dashed_triplicate-dotted
 70
   64
  3
--------- --- --- --- ----------
 72
   65
 73
    8
 40
18.75
 49
12
 49
-1.5
 49
0.25
 49
-1.5
 49
0.25
 49
-1.5
 49
0.25
 49
-1.5
  0
LTYPE
  2
dotted
 70
   64
  3
   -       -       -       -    
 72
   65
 73
    2
 40
1.75
 49
0.25
 49
-1.5
  0
LTYPE
  2
chain
 70
   64
  3
-------------- -- --------------
 72
   65
 73
    4
 40
18.5
 49
12
 49
-1.5
 49
3.5
 49
-1.5
  0
LTYPE
  2
chain_double_dash
 70
   64
  3
------------ -- -- -------------
 72
   65
 73
    6
 40
23.5
 49
12
 49
-1.5
 49
3.5
 49
-1.5
 49
3.5
 49
-1.5
  0
LTYPE
  2
dashed_dotted
 70
   64
  3
-----------     -     ----------
 72
   65
 73
    4
 40
9.25
 49
6
 49
-1.5
 49
0.25
 49
-1.5
  0
LTYPE
  2
double-dashed_dotted
 70
   64
  3
------   -----------   -   -----
 72
   65
 73
    6
 40
16.75
 49
6
 49
-1.5
 49
6
 49
-1.5
 49
0.25
 49
-1.5
  0
LTYPE
  2
dashed_double-dotted
 70
   64
  3
---------    -    -    ---------
 72
   65
 73
    6
 40
11
 49
6
 49
-1.5
 49
0.25
 49
-1.5
 49
0.25
 49
-1.5
  0
LTYPE
  2
double-dashed_double-dotted
 70
   64
  3
-----   ---------   -   -   ----
 72
   65
 73
    8
 40
18.5
 49
6
 49
-1.5
 49
6
 49
-1.5
 49
0.25
 49
-1.5
 49
0.25
 49
-1.5
  0
LTYPE
  2
dashed_triplicate-dotted
 70
   64
  3
-------    -    -    -    ------
 72
   65
 73
    8
 40
12.75
 49
6
 49
-1.5
 49
0.25
 49
-1.5
 49
0.25
 49
-1.5
 49
0.25
 49
-1.5
  0
LTYPE
  2
double-dashed_triplicate-dotted
 70
   64
  3
-----  ---------  -  -  -  -----
 72
   65
 73
   10
 40
20.25
 49
6
 49
-1.5
 49
6
 49
-1.5
 49
0.25
 49
-1.5
 49
0.25
 49
-1.5
 49
0.25
 49
-1.5
  0
LTYPE
  2
undefined
 70
   64
  3
--------------------------------
 72
   65
 73
    0
 40
0
  0
ENDTAB
  0
TABLE
  2
STYLE
  5
3
100
AcDbSymbolTable
 70
     1
  0
STYLE
  5
10
100
AcDbSymbolTableRecord
100
AcDbTextStyleTableRecord
  2
STANDARD
 70
     0
 40
0.0
 41
1.0
 50
0.0
 71
     0
 42
0.2
  3
txt
  4
bigfont.shx
  0
STYLE
  5
26
100
AcDbSymbolTableRecord
100
AcDbTextStyleTableRecord
  2
TATEGAKI
 70
    68
 40
0.0
 41
1.0
 50
0.0
 71
     0
 42
1.0
  3
txt
  4
bigfont.shx
  0
ENDTAB
  0
TABLE
  2
LAYER
 70
    5
  0
LAYER
  2
_0-1_
 70
   64
 62
    7
  6
CONTINUOUS
  0
LAYER
  2
_1-1_
 70
   64
 62
    7
  6
CONTINUOUS
  0
LAYER
  2
_1-2_
 70
   64
 62
    7
  6
CONTINUOUS
  0
LAYER
  2
_1-3_ADD_LINE
 70
   64
 62
    7
  6
CONTINUOUS
  0
LAYER
  2
ADD_LINE
 70
   64
 62
    7
  6
CONTINUOUS
  0
ENDTAB
  0
ENDSEC
  0
SECTION
  2
BLOCKS
  0
ENDSEC
  0
SECTION
  2
ENTITIES
  0
LINE
  8
_0-1_
  6
CONTINUOUS
 62
    3
 10
109.91378294262526
 20
10.082039243805809
 11
109.59104797587588
 21
10.082039243805809
  0
LINE
  8
_0-1_
  6
CONTINUOUS
 62
    3
 10
109.59104797587588
 20
10.082039243805809
 11
109.59104797587588
 21
280.35561316697232
  0
LINE
  8
_0-1_
  6
CONTINUOUS
 62
    3
 10
289.74820746365236
 20
280.35561316697232
 11
289.74820746365236
 21
10.082039243805809
  0
LINE
  8
_0-1_
  6
CONTINUOUS
 62
    3
 10
109.59104797587588
 20
280.35561316697232
 11
289.74820746365236
 21
280.35561316697232
  0
LINE
  8
_0-1_
  6
CONTINUOUS
 62
    3
 10
289.74820746365236
 20
10.082039243805809
 11
109.59104797587588
 21
10.082039243805809
  0
LINE
  8
_0-1_
  6
CONTINUOUS
 62
    3
 10
289.74820746365236
 20
25.082039243805809
 11
109.59104797587588
 21
25.082039243805809
  0
LINE
  8
_0-1_
  6
CONTINUOUS
 62
    3
 10
169.59104797587588
 20
10.082039243805809
 11
169.59104797587588
 21
25.082039243805809
  0
LINE
  8
_0-1_
  6
CONTINUOUS
 62
    3
 10
229.59104797587588
 20
10.082039243805809
 11
229.59104797587588
 21
25.082039243805809
  0
TEXT
  8
_0-1_
 62
    7
 10
111.53633893959282
 20
21.577207655443985
 40
2
 41
1
 50
0
  1
ＴＩＴＬＥ
  0
TEXT
  8
_0-1_
 62
    7
 10
171.46168920362626
 20
21.325420469460653
 40
2
 41
1
 50
0
  1
ＭＯＤＥＬ
  0
TEXT
  8
_0-1_
 62
    7
 10
236.24586551082081
 20
15.198940813772481
 40
4
 41
1
 50
0
  1
日伸制御機工株式会社
  0
TEXT
  8
_0-1_
 62
    7
 10
183.54696132596683
 20
14.842541436464103
 40
4
 41
1
 50
0
  1
SNB-502-N
  0
TEXT
  8
_0-1_
 62
    7
 10
110.72354323738593
 20
15.214837764415023
 40
4
 41
1
 50
0
  1
半導体用スパークケンチャー
  0
LINE
  8
_1-2_
  6
CONTINUOUS
 62
    6
 10
206.79619605959911
 20
185.47082539551133
 11
206.79619605959911
 21
200.47082539551133
  0
LINE
  8
_1-2_
  6
CONTINUOUS
 62
    6
 10
205.79619605959911
 20
186.47082539551133
 11
205.79619605959911
 21
199.47082539551133
  0
LINE
  8
_1-2_
  6
CONTINUOUS
 62
    6
 10
142.79619605959914
 20
199.47082539551133
 11
205.79619605959911
 21
199.47082539551133
  0
LINE
  8
_1-2_
  6
CONTINUOUS
 62
    6
 10
142.79619605959914
 20
186.47082539551133
 11
142.79619605959914
 21
199.47082539551133
  0
LINE
  8
_1-2_
  6
CONTINUOUS
 62
    6
 10
142.79619605959914
 20
186.47082539551133
 11
205.79619605959911
 21
186.47082539551133
  0
LINE
  8
_1-2_
  6
CONTINUOUS
 62
    6
 10
141.79619605959914
 20
200.47082539551133
 11
206.79619605959911
 21
200.47082539551133
  0
LINE
  8
_1-2_
  6
CONTINUOUS
 62
    6
 10
141.79619605959914
 20
185.47082539551133
 11
206.79619605959911
 21
185.47082539551133
  0
LINE
  8
_1-2_
  6
CONTINUOUS
 62
    6
 10
141.79619605959914
 20
185.47082539551133
 11
141.79619605959914
 21
200.47082539551133
  0
LINE
  8
_1-2_
  6
CONTINUOUS
 62
    6
 10
211.79619605959911
 20
145.47082539551133
 11
211.79619605959911
 21
147.47082539551133
  0
LINE
  8
_1-2_
  6
CONTINUOUS
 62
    6
 10
206.79619605959911
 20
146.47082539551133
 11
206.79619605959911
 21
156.97082539551133
  0
LINE
  8
_1-2_
  6
CONTINUOUS
 62
    6
 10
206.79619605959911
 20
147.47082539551133
 11
211.79619605959911
 21
147.47082539551133
  0
LINE
  8
_1-2_
  6
CONTINUOUS
 62
    6
 10
141.79619605959914
 20
156.97082539551133
 11
206.79619605959911
 21
156.97082539551133
  0
LINE
  8
_1-2_
  6
CONTINUOUS
 62
    6
 10
136.79619605959914
 20
145.47082539551133
 11
136.79619605959914
 21
147.47082539551133
  0
LINE
  8
_1-2_
  6
CONTINUOUS
 62
    6
 10
136.79619605959914
 20
145.47082539551133
 11
211.79619605959911
 21
145.47082539551133
  0
LINE
  8
_1-2_
  6
CONTINUOUS
 62
    6
 10
141.79619605959914
 20
146.47082539551133
 11
141.79619605959914
 21
156.97082539551133
  0
LINE
  8
_1-2_
  6
CONTINUOUS
 62
    6
 10
141.79619605959914
 20
146.47082539551133
 11
206.79619605959911
 21
146.47082539551133
  0
LINE
  8
_1-2_
  6
CONTINUOUS
 62
    6
 10
136.79619605959914
 20
147.47082539551133
 11
141.79619605959914
 21
147.47082539551133
  0
LINE
  8
_1-2_
  6
CONTINUOUS
 62
    6
 10
261.04619605959914
 20
146.47082539551133
 11
260.29619605959914
 21
146.47082539551133
  0
LINE
  8
_1-2_
  6
CONTINUOUS
 62
    6
 10
246.04619605959914
 20
146.47082539551133
 11
246.79619605959914
 21
146.47082539551133
  0
LINE
  8
_1-2_
  6
CONTINUOUS
 62
    6
 10
246.04619605959914
 20
146.47082539551133
 11
246.04619605959914
 21
156.97082539551133
  0
LINE
  8
_1-2_
  6
CONTINUOUS
 62
    6
 10
246.04619605959914
 20
156.97082539551133
 11
261.04619605959914
 21
156.97082539551133
  0
LINE
  8
_1-2_
  6
CONTINUOUS
 62
    6
 10
261.04619605959914
 20
146.47082539551133
 11
261.04619605959914
 21
156.97082539551133
  0
LINE
  8
_1-2_
  6
CONTINUOUS
 62
    6
 10
246.79619605959914
 20
147.47082539551133
 11
260.29619605959914
 21
147.47082539551133
  0
LINE
  8
_1-2_
  6
CONTINUOUS
 62
    6
 10
260.29619605959914
 20
145.47082539551133
 11
260.29619605959914
 21
147.47082539551133
  0
LINE
  8
_1-2_
  6
CONTINUOUS
 62
    6
 10
246.79619605959914
 20
145.47082539551133
 11
246.79619605959914
 21
147.47082539551133
  0
LINE
  8
_1-2_
  6
CONTINUOUS
 62
    6
 10
246.79619605959914
 20
145.47082539551133
 11
260.29619605959914
 21
145.47082539551133
  0
LINE
  8
_1-3_ADD_LINE
  6
CENTER1
 62
    7
 10
253.54619605959914
 20
148.4835539447009
 11
253.54619605959914
 21
144.35034677764253
  0
LINE
  8
_1-3_ADD_LINE
  6
CENTER1
 62
    7
 10
209.29619605959911
 20
148.88097771076423
 11
209.29619605959911
 21
143.79395350515389
  0
LINE
  8
_1-3_ADD_LINE
  6
CENTER1
 62
    7
 10
139.29619605959914
 20
148.4835539447009
 11
139.29619605959914
 21
144.03240776479186
  0
LINE
  8
_1-3_ADD_LINE
  6
CENTER1
 62
    7
 10
209.29619605959911
 20
195.54490877069966
 11
209.29619605959911
 21
190.07604890128732
  0
LINE
  8
_1-3_ADD_LINE
  6
CENTER1
 62
    7
 10
207.00061594910187
 20
192.97082539551133
 11
211.30398109224603
 21
192.97082539551133
  0
LINE
  8
_1-3_ADD_LINE
  6
CENTER1
 62
    7
 10
137.07093237300947
 20
192.97082539551133
 11
141.3742975161536
 21
192.97082539551133
  0
LINE
  8
_1-3_ADD_LINE
  6
CENTER1
 62
    7
 10
139.29619605959914
 20
196.08282941359269
 11
139.29619605959914
 21
189.62778169887645
  0
CIRCLE
  8
_1-2_
  6
CONTINUOUS
 62
    6
 10
139.29619605959914
 20
192.97082539551133
 40
1.125
  0
CIRCLE
  8
_1-2_
  6
CONTINUOUS
 62
    6
 10
209.29619605959911
 20
192.97082539551133
 40
1.125
  0
LINE
  8
_1-2_
  6
CONTINUOUS
 62
    6
 10
231.79619605959911
 20
151.47082539551133
 11
231.79619605959911
 21
152.47082539551133
  0
LINE
  8
_1-2_
  6
CONTINUOUS
 62
    6
 10
222.79393588883067
 20
153.42813328099601
 11
221.70679374920235
 21
150.66846477270872
  0
LINE
  8
_1-2_
  6
CONTINUOUS
 62
    6
 10
223.88035034589257
 20
153.45762415646567
 11
222.76497074809205
 21
150.62627594666444
  0
LINE
  8
_1-2_
  6
CONTINUOUS
 62
    6
 10
206.79619605959911
 20
151.47082539551133
 11
222.02287520667002
 21
151.47082539551133
  0
LINE
  8
_1-2_
  6
CONTINUOUS
 62
    6
 10
223.09767204612265
 20
151.47082539551133
 11
231.79619605959911
 21
151.47082539551133
  0
LINE
  8
_1-2_
  6
CONTINUOUS
 62
    6
 10
206.79619605959911
 20
152.47082539551133
 11
222.41681460060943
 21
152.47082539551133
  0
LINE
  8
_1-2_
  6
CONTINUOUS
 62
    6
 10
223.49161144006206
 20
152.47082539551133
 11
231.79619605959911
 21
152.47082539551133
  0
CIRCLE
  8
_1-2_
  6
CONTINUOUS
 62
    6
 10
250.04619605959914
 20
151.97082539551133
 40
0.5
  0
CIRCLE
  8
_1-2_
  6
CONTINUOUS
 62
    6
 10
257.04619605959914
 20
151.97082539551133
 40
0.5
  0
LINE
  8
_1-2_
  6
CONTINUOUS
 62
    6
 10
231.79619605959911
 20
195.97082539551133
 11
231.79619605959911
 21
196.97082539551133
  0
LINE
  8
_1-2_
  6
CONTINUOUS
 62
    6
 10
222.79393588883067
 20
197.92813328099601
 11
221.70679374920235
 21
195.16846477270872
  0
LINE
  8
_1-2_
  6
CONTINUOUS
 62
    6
 10
223.88035034589257
 20
197.95762415646567
 11
222.76497074809205
 21
195.12627594666444
  0
LINE
  8
_1-2_
  6
CONTINUOUS
 62
    6
 10
206.79619605959911
 20
195.97082539551133
 11
222.02287520667002
 21
195.97082539551133
  0
LINE
  8
_1-2_
  6
CONTINUOUS
 62
    6
 10
223.09767204612265
 20
195.97082539551133
 11
231.79619605959911
 21
195.97082539551133
  0
LINE
  8
_1-2_
  6
CONTINUOUS
 62
    6
 10
206.79619605959911
 20
196.97082539551133
 11
222.41681460060943
 21
196.97082539551133
  0
LINE
  8
_1-2_
  6
CONTINUOUS
 62
    6
 10
223.49161144006206
 20
196.97082539551133
 11
231.79619605959911
 21
196.97082539551133
  0
LINE
  8
_1-2_
  6
CONTINUOUS
 62
    6
 10
231.79619605959911
 20
188.97082539551133
 11
231.79619605959911
 21
189.97082539551133
  0
LINE
  8
_1-2_
  6
CONTINUOUS
 62
    6
 10
222.79393588883067
 20
190.92813328099601
 11
221.70679374920235
 21
188.16846477270872
  0
LINE
  8
_1-2_
  6
CONTINUOUS
 62
    6
 10
223.88035034589257
 20
190.95762415646567
 11
222.76497074809205
 21
188.12627594666444
  0
LINE
  8
_1-2_
  6
CONTINUOUS
 62
    6
 10
206.79619605959911
 20
188.97082539551133
 11
222.02287520667002
 21
188.97082539551133
  0
LINE
  8
_1-2_
  6
CONTINUOUS
 62
    6
 10
223.09767204612265
 20
188.97082539551133
 11
231.79619605959911
 21
188.97082539551133
  0
LINE
  8
_1-2_
  6
CONTINUOUS
 62
    6
 10
206.79619605959911
 20
189.97082539551133
 11
222.41681460060943
 21
189.97082539551133
  0
LINE
  8
_1-2_
  6
CONTINUOUS
 62
    6
 10
223.49161144006206
 20
189.97082539551133
 11
231.79619605959911
 21
189.97082539551133
  0
TEXT
  8
_1-1_
 62
    4
 10
170.74295648149769
 20
150.35204086512459
 40
2.5
 41
1
 50
0
  1
型式
  0
LINE
  8
_1-1_
  6
DASHED1
 62
    7
 10
166.97826537150269
 20
153.72044870038326
 11
178.8667636135921
 21
153.72044870038326
  0
LINE
  8
_1-1_
  6
DASHED1
 62
    7
 10
178.8667636135921
 20
153.72044870038326
 11
178.8667636135921
 21
149.55947431565195
  0
LINE
  8
_1-1_
  6
DASHED1
 62
    7
 10
178.8667636135921
 20
149.55947431565195
 11
166.97826537150269
 21
149.55947431565195
  0
LINE
  8
_1-1_
  6
DASHED1
 62
    7
 10
166.97826537150269
 20
149.55947431565195
 11
166.97826537150269
 21
153.72044870038326
  0
LINE
  8
_1-1_
  6
CONTINUOUS
 62
    4
 10
272.04619605959914
 20
145.47082539551133
 11
272.04619605959914
 21
156.97082539551133
  0
LINE
  8
_1-1_
  6
CONTINUOUS
 62
    4
 10
272.04619605959914
 20
145.47082539551133
 11
271.52855796939411
 21
147.40267704808946
  0
LINE
  8
_1-1_
  6
CONTINUOUS
 62
    4
 10
272.04619605959914
 20
145.47082539551133
 11
272.56383414980417
 21
147.40267704808946
  0
LINE
  8
_1-1_
  6
CONTINUOUS
 62
    4
 10
272.04619605959914
 20
156.97082539551133
 11
271.52855796939411
 21
155.03897374293319
  0
LINE
  8
_1-1_
  6
CONTINUOUS
 62
    4
 10
272.04619605959914
 20
156.97082539551133
 11
272.56383414980417
 21
155.03897374293319
  0
LINE
  8
_1-1_
  6
CONTINUOUS
 62
    4
 10
272.04619605959914
 20
145.47082539551133
 11
262.04619605959914
 21
145.47082539551133
  0
LINE
  8
_1-1_
  6
CONTINUOUS
 62
    4
 10
272.04619605959914
 20
156.97082539551133
 11
262.04619605959914
 21
156.97082539551133
  0
TEXT
  8
_1-1_
 62
    7
 10
271.54619605959914
 20
149.59582539551133
 40
3
 41
1
 50
90
  1
23
  0
LINE
  8
_1-1_
  6
CONTINUOUS
 62
    4
 10
206.79619605959911
 20
167.97082539551133
 11
141.79619605959914
 21
167.97082539551133
  0
LINE
  8
_1-1_
  6
CONTINUOUS
 62
    4
 10
206.79619605959911
 20
167.97082539551133
 11
204.86434440702098
 21
167.45318730530627
  0
LINE
  8
_1-1_
  6
CONTINUOUS
 62
    4
 10
206.79619605959911
 20
167.97082539551133
 11
204.86434440702098
 21
168.48846348571635
  0
LINE
  8
_1-1_
  6
CONTINUOUS
 62
    4
 10
141.79619605959914
 20
167.97082539551133
 11
143.72804771217727
 21
167.45318730530627
  0
LINE
  8
_1-1_
  6
CONTINUOUS
 62
    4
 10
141.79619605959914
 20
167.97082539551133
 11
143.72804771217727
 21
168.48846348571635
  0
LINE
  8
_1-1_
  6
CONTINUOUS
 62
    4
 10
206.79619605959911
 20
167.97082539551133
 11
206.79619605959911
 21
157.97082539551133
  0
LINE
  8
_1-1_
  6
CONTINUOUS
 62
    4
 10
141.79619605959914
 20
167.97082539551133
 11
141.79619605959914
 21
157.97082539551133
  0
TEXT
  8
_1-1_
 62
    7
 10
171.79619605959914
 20
168.47082539551133
 40
3
 41
1
 50
0
  1
130
  0
LINE
  8
_1-1_
  6
CONTINUOUS
 62
    4
 10
209.29619605959911
 20
211.47082539551133
 11
139.29619605959914
 21
211.47082539551133
  0
LINE
  8
_1-1_
  6
CONTINUOUS
 62
    4
 10
209.29619605959911
 20
211.47082539551133
 11
207.36434440702098
 21
210.95318730530627
  0
LINE
  8
_1-1_
  6
CONTINUOUS
 62
    4
 10
209.29619605959911
 20
211.47082539551133
 11
207.36434440702098
 21
211.98846348571635
  0
LINE
  8
_1-1_
  6
CONTINUOUS
 62
    4
 10
139.29619605959914
 20
211.47082539551133
 11
141.22804771217727
 21
210.9531873053063
  0
LINE
  8
_1-1_
  6
CONTINUOUS
 62
    4
 10
139.29619605959914
 20
211.47082539551133
 11
141.22804771217727
 21
211.98846348571635
  0
LINE
  8
_1-1_
  6
CONTINUOUS
 62
    4
 10
209.29619605959911
 20
211.47082539551133
 11
209.29619605959911
 21
201.47082539551133
  0
LINE
  8
_1-1_
  6
CONTINUOUS
 62
    4
 10
139.29619605959914
 20
211.47082539551133
 11
139.29619605959914
 21
201.47082539551133
  0
TEXT
  8
_1-1_
 62
    7
 10
171.79619605959914
 20
211.97082539551133
 40
3
 41
1
 50
0
  1
140
  0
LINE
  8
_1-1_
  6
CONTINUOUS
 62
    4
 10
211.79619605959911
 20
216.47082539551133
 11
136.79619605959914
 21
216.47082539551133
  0
LINE
  8
_1-1_
  6
CONTINUOUS
 62
    4
 10
211.79619605959911
 20
216.47082539551133
 11
209.86434440702098
 21
215.95318730530627
  0
LINE
  8
_1-1_
  6
CONTINUOUS
 62
    4
 10
211.79619605959911
 20
216.47082539551133
 11
209.86434440702098
 21
216.98846348571635
  0
LINE
  8
_1-1_
  6
CONTINUOUS
 62
    4
 10
136.79619605959914
 20
216.47082539551133
 11
138.72804771217727
 21
215.9531873053063
  0
LINE
  8
_1-1_
  6
CONTINUOUS
 62
    4
 10
136.79619605959914
 20
216.47082539551133
 11
138.72804771217727
 21
216.98846348571635
  0
TEXT
  8
_1-1_
 62
    7
 10
171.79619605959914
 20
216.97082539551133
 40
3
 41
1
 50
0
  1
150
  0
LINE
  8
_1-1_
  6
CONTINUOUS
 62
    4
 10
211.79619605959911
 20
216.47082539551133
 11
211.79619605959911
 21
201.47082539551133
  0
LINE
  8
_1-1_
  6
CONTINUOUS
 62
    4
 10
136.79619605959914
 20
216.47082539551133
 11
136.79619605959914
 21
201.47082539551133
  0
LINE
  8
_1-1_
  6
CONTINUOUS
 62
    7
 10
217.50438290038264
 20
152.33345723880615
 11
226.22261494458155
 21
165.41080530510447
  0
LINE
  8
_1-1_
  6
CONTINUOUS
 62
    7
 10
217.50438290038264
 20
152.33345723880615
 11
218.14528046583018
 21
154.22798892516124
  0
LINE
  8
_1-1_
  6
CONTINUOUS
 62
    7
 10
217.50438290038264
 20
152.33345723880615
 11
219.00668231646137
 21
153.65372102474043
  0
LINE
  8
_1-1_
  6
CONTINUOUS
 62
    4
 10
261.04619605959914
 20
167.97082539551133
 11
246.04619605959914
 21
167.97082539551133
  0
LINE
  8
_1-1_
  6
CONTINUOUS
 62
    4
 10
261.04619605959914
 20
167.97082539551133
 11
259.11434440702101
 21
167.4531873053063
  0
LINE
  8
_1-1_
  6
CONTINUOUS
 62
    4
 10
261.04619605959914
 20
167.97082539551133
 11
259.11434440702101
 21
168.48846348571638
  0
LINE
  8
_1-1_
  6
CONTINUOUS
 62
    4
 10
246.04619605959914
 20
167.97082539551133
 11
247.97804771217727
 21
167.4531873053063
  0
LINE
  8
_1-1_
  6
CONTINUOUS
 62
    4
 10
246.04619605959914
 20
167.97082539551133
 11
247.97804771217727
 21
168.48846348571638
  0
LINE
  8
_1-1_
  6
CONTINUOUS
 62
    4
 10
261.04619605959914
 20
167.97082539551133
 11
261.04619605959914
 21
157.97082539551133
  0
LINE
  8
_1-1_
  6
CONTINUOUS
 62
    4
 10
246.04619605959914
 20
167.97082539551133
 11
246.04619605959914
 21
157.97082539551133
  0
TEXT
  8
_1-1_
 62
    7
 10
251.92119605959914
 20
168.47082539551133
 40
3
 41
1
 50
0
  1
30
  0
LINE
  8
_1-2_
  6
CONTINUOUS
 62
    6
 10
211.79619605959911
 20
189.97082539551133
 11
211.79619605959911
 21
195.97082539551133
  0
TEXT
  8
_1-1_
 62
    4
 10
227.19871735015801
 20
170.48595924368445
 40
2.5
 41
1
 50
0
  1
UL1015
  0
TEXT
  8
_1-1_
 62
    4
 10
226.76488443907471
 20
166.7983794994764
 40
2.5
 41
1
 50
0
  1
AWG18(黒)
  0
LINE
  8
_1-1_
  6
CONTINUOUS
 62
    7
 10
226.22261494458155
 20
165.41080530510447
 11
238.91220594940714
 21
165.41080530510447
  0
LINE
  8
_1-1_
  6
CONTINUOUS
 62
    7
 10
210.06231736236765
 20
194.12985289772433
 11
219.17280849511695
 21
207.14484023022334
  0
LINE
  8
_1-1_
  6
CONTINUOUS
 62
    7
 10
210.06231736236765
 20
194.12985289772433
 11
210.74609589324481
 21
196.00933338996452
  0
LINE
  8
_1-1_
  6
CONTINUOUS
 62
    7
 10
210.06231736236765
 20
194.12985289772433
 11
211.59422718678977
 21
195.41564148448305
  0
TEXT
  8
_1-1_
 62
    4
 10
219.60664140620025
 20
208.01250605238994
 40
2.5
 41
1
 50
0
  1
2-穴φ4.5
  0
LINE
  8
_1-1_
  6
CONTINUOUS
 62
    7
 10
219.17280849511695
 20
207.14484023022334
 11
232.40471228315761
 21
207.14484023022334
  0
LINE
  8
_1-2_
  6
CONTINUOUS
 62
    6
 10
211.44264266900583
 20
199.72082539551133
 11
206.79619605959911
 21
199.72082539551133
  0
LINE
  8
_1-2_
  6
CONTINUOUS
 62
    6
 10
211.79619605959911
 20
199.36727200491805
 11
211.79619605959911
 21
196.97082539551133
  0
LINE
  8
_1-2_
  6
CONTINUOUS
 62
    6
 10
211.44264266900583
 20
199.72082539551133
 11
211.79619605959911
 21
199.36727200491805
  0
LINE
  8
_1-2_
  6
CONTINUOUS
 62
    6
 10
211.79619605959911
 20
186.5743787861046
 11
211.79619605959911
 21
188.97082539551133
  0
LINE
  8
_1-2_
  6
CONTINUOUS
 62
    6
 10
211.44264266900583
 20
186.22082539551133
 11
206.79619605959911
 21
186.22082539551133
  0
LINE
  8
_1-2_
  6
CONTINUOUS
 62
    6
 10
211.79619605959911
 20
186.5743787861046
 11
211.44264266900583
 21
186.22082539551133
  0
LINE
  8
_1-2_
  6
CONTINUOUS
 62
    6
 10
137.14974945019242
 20
199.72082539551133
 11
141.79619605959914
 21
199.72082539551133
  0
LINE
  8
_1-2_
  6
CONTINUOUS
 62
    6
 10
136.79619605959914
 20
199.36727200491805
 11
136.79619605959914
 21
191.8216541247931
  0
LINE
  8
_1-2_
  6
CONTINUOUS
 62
    6
 10
137.14974945019242
 20
199.72082539551133
 11
136.79619605959914
 21
199.36727200491805
  0
LINE
  8
_1-2_
  6
CONTINUOUS
 62
    6
 10
136.79619605959914
 20
186.5743787861046
 11
136.79619605959914
 21
191.8216541247931
  0
LINE
  8
_1-2_
  6
CONTINUOUS
 62
    6
 10
137.14974945019242
 20
186.22082539551133
 11
141.79619605959914
 21
186.22082539551133
  0
LINE
  8
_1-2_
  6
CONTINUOUS
 62
    6
 10
136.79619605959914
 20
186.5743787861046
 11
137.14974945019242
 21
186.22082539551133
  0
ENDSEC
  0
EOF
