  0
SECTION
  2
HEADER
  9
$ACADVER
  1
AC1009
  9
$INSBASE
 10
0
 20
0
 30
0
  9
$EXTMIN
 10
0
 20
0
  9
$EXTMAX
 10
420
 20
297
  9
$LIMMIN
 10
0
 20
0
  9
$LIMMAX
 10
420
 20
297
  9
$LTSCALE
 40
1
  0
ENDSEC
  0
SECTION
  2
TABLES
  0
TABLE
  2
LTYPE
 70
     9
  0
LTYPE
  2
CONTINUOUS
 70
    64
  3
実線
 72
    65
 73
     0
 40
0.0
  0
LTYPE
  2
DASHED1
 70
    64
  3
--  --  --  --  --  --  --  --  
 72
    65
 73
     2
 40
2.5
 49
1.25
 49
-1.25
  0
LTYPE
  2
DASHED2
 70
    64
  3
----    ----    ----    ----    
 72
    65
 73
     2
 40
5.0
 49
2.5
 49
-2.5
  0
LTYPE
  2
DASHED3
 70
    64
  3
------  ------  ------  ------  
 72
    65
 73
     2
 40
5.0
 49
3.75
 49
-1.25
  0
LTYPE
  2
CENTER1
 70
    64
  3
----- - ----- - ----- - ----- - 
 72
    65
 73
     4
 40
10.0
 49
6.25
 49
-1.25
 49
1.25
 49
-1.25
  0
LTYPE
  2
CENTER2
 70
    64
  3
----------  --  ----------  --  
 72
    65
 73
     4
 40
20.0
 49
12.5
 49
-2.5
 49
2.5
 49
-2.5
  0
LTYPE
  2
PHANTOM1
 70
    64
  3
--- - - --- - - --- - - --- - - 
 72
    65
 73
     6
 40
10.0
 49
3.25
 49
-1.25
 49
1.25
 49
-1.25
 49
1.25
 49
-1.25
  0
LTYPE
  2
PHANTOM2
 70
    64
  3
--------  -  -  --------  -  -  
 72
    65
 73
     6
 40
20.0
 49
10.0
 49
-2.5
 49
1.25
 49
-2.5
 49
1.25
 49
-2.5
  0
LTYPE
  2
DOT
 70
    64
  3
-   -   -   -   -   -   -   -   
 72
    65
 73
     2
 40
2.5
 49
0.625
 49
-1.875
  0
LTYPE
  2
DUMMY
 70
    64
  3
ダミー
 72
    65
 73
     0
 40
0.0
  0
LTYPE
  2
RAND1
 70
    64
  3
ランダム線1
 72
    65
 73
     4
 40
10.0
 49
1.0
 49
-2.0
 49
3.0
 49
-4.0
  0
LTYPE
  2
RAND2
 70
    64
  3
ランダム線2
 72
    65
 73
     4
 40
14.0
 49
2.0
 49
-3.0
 49
4.0
 49
-5.0
  0
LTYPE
  2
RAND3
 70
    64
  3
ランダム線3
 72
    65
 73
     4
 40
18.0
 49
3.0
 49
-4.0
 49
5.0
 49
-6.0
  0
LTYPE
  2
RAND4
 70
    64
  3
ランダム線4
 72
    65
 73
     4
 40
22.0
 49
4.0
 49
-5.0
 49
6.0
 49
-7.0
  0
LTYPE
  2
RAND5
 70
    64
  3
ランダム線5
 72
    65
 73
     4
 40
26.0
 49
5.0
 49
-6.0
 49
7.0
 49
-8.0
  0
LTYPE
  2
LONG1
 70
    64
  3
----------  --  ----------  --  
 72
    65
 73
     4
 40
40.0
 49
32.5
 49
-2.5
 49
2.5
 49
-2.5
  0
LTYPE
  2
LONG2
 70
    64
  3
--------  -  -  --------  -  -  
 72
    65
 73
     6
 40
40.0
 49
30.0
 49
-2.5
 49
1.25
 49
-2.5
 49
1.25
 49
-2.5
  0
LTYPE
  2
LONG3
 70
    64
  3
+++++++++++++++..+++++++++++++++
 72
    65
 73
     2
 40
40.0
 49
37.5
 49
-2.5
  0
LTYPE
  2
LONG4
 70
    64
  3
+++++++++++++++..+++++++++++++++
 72
    65
 73
     2
 40
80.0
 49
75.0
 49
-5.0
  0
LTYPE
  2
LONG5
 70
    64
  3
----------  --  ----------  --  
 72
    65
 73
     4
 40
60.0
 49
37.5
 49
-7.5
 49
7.5
 49
-7.5
  0
LTYPE
  2
dashed
 70
   64
  3
-------   -------------   ------
 72
   65
 73
    2
 40
7.5
 49
6
 49
-1.5
  0
LTYPE
  2
dashed_spaced
 70
   64
  3
----        --------        ----
 72
   65
 73
    2
 40
12
 49
6
 49
-6
  0
LTYPE
  2
long_dashed_dotted
 70
   64
  3
------------- --- --------------
 72
   65
 73
    4
 40
15.25
 49
12
 49
-1.5
 49
0.25
 49
-1.5
  0
LTYPE
  2
long_dashed_double-dotted
 70
   64
  3
----------- --- --- ------------
 72
   65
 73
    6
 40
17
 49
12
 49
-1.5
 49
0.25
 49
-1.5
 49
0.25
 49
-1.5
  0
LTYPE
  2
long_dashed_triplicate-dotted
 70
   64
  3
--------- --- --- --- ----------
 72
   65
 73
    8
 40
18.75
 49
12
 49
-1.5
 49
0.25
 49
-1.5
 49
0.25
 49
-1.5
 49
0.25
 49
-1.5
  0
LTYPE
  2
dotted
 70
   64
  3
   -       -       -       -    
 72
   65
 73
    2
 40
1.75
 49
0.25
 49
-1.5
  0
LTYPE
  2
chain
 70
   64
  3
-------------- -- --------------
 72
   65
 73
    4
 40
18.5
 49
12
 49
-1.5
 49
3.5
 49
-1.5
  0
LTYPE
  2
chain_double_dash
 70
   64
  3
------------ -- -- -------------
 72
   65
 73
    6
 40
23.5
 49
12
 49
-1.5
 49
3.5
 49
-1.5
 49
3.5
 49
-1.5
  0
LTYPE
  2
dashed_dotted
 70
   64
  3
-----------     -     ----------
 72
   65
 73
    4
 40
9.25
 49
6
 49
-1.5
 49
0.25
 49
-1.5
  0
LTYPE
  2
double-dashed_dotted
 70
   64
  3
------   -----------   -   -----
 72
   65
 73
    6
 40
16.75
 49
6
 49
-1.5
 49
6
 49
-1.5
 49
0.25
 49
-1.5
  0
LTYPE
  2
dashed_double-dotted
 70
   64
  3
---------    -    -    ---------
 72
   65
 73
    6
 40
11
 49
6
 49
-1.5
 49
0.25
 49
-1.5
 49
0.25
 49
-1.5
  0
LTYPE
  2
double-dashed_double-dotted
 70
   64
  3
-----   ---------   -   -   ----
 72
   65
 73
    8
 40
18.5
 49
6
 49
-1.5
 49
6
 49
-1.5
 49
0.25
 49
-1.5
 49
0.25
 49
-1.5
  0
LTYPE
  2
dashed_triplicate-dotted
 70
   64
  3
-------    -    -    -    ------
 72
   65
 73
    8
 40
12.75
 49
6
 49
-1.5
 49
0.25
 49
-1.5
 49
0.25
 49
-1.5
 49
0.25
 49
-1.5
  0
LTYPE
  2
double-dashed_triplicate-dotted
 70
   64
  3
-----  ---------  -  -  -  -----
 72
   65
 73
   10
 40
20.25
 49
6
 49
-1.5
 49
6
 49
-1.5
 49
0.25
 49
-1.5
 49
0.25
 49
-1.5
 49
0.25
 49
-1.5
  0
LTYPE
  2
undefined
 70
   64
  3
--------------------------------
 72
   65
 73
    0
 40
0
  0
ENDTAB
  0
TABLE
  2
STYLE
  5
3
100
AcDbSymbolTable
 70
     1
  0
STYLE
  5
10
100
AcDbSymbolTableRecord
100
AcDbTextStyleTableRecord
  2
STANDARD
 70
     0
 40
0.0
 41
1.0
 50
0.0
 71
     0
 42
0.2
  3
txt
  4
bigfont.shx
  0
STYLE
  5
26
100
AcDbSymbolTableRecord
100
AcDbTextStyleTableRecord
  2
TATEGAKI
 70
    68
 40
0.0
 41
1.0
 50
0.0
 71
     0
 42
1.0
  3
txt
  4
bigfont.shx
  0
ENDTAB
  0
TABLE
  2
LAYER
 70
    5
  0
LAYER
  2
_0-1_
 70
   64
 62
    7
  6
CONTINUOUS
  0
LAYER
  2
_1-1_
 70
   64
 62
    7
  6
CONTINUOUS
  0
LAYER
  2
_1-2_
 70
   64
 62
    7
  6
CONTINUOUS
  0
LAYER
  2
_1-3_ADD_LINE
 70
   64
 62
    7
  6
CONTINUOUS
  0
LAYER
  2
ADD_LINE
 70
   64
 62
    7
  6
CONTINUOUS
  0
ENDTAB
  0
ENDSEC
  0
SECTION
  2
BLOCKS
  0
ENDSEC
  0
SECTION
  2
ENTITIES
  0
LINE
  8
_0-1_
  6
CONTINUOUS
 62
    3
 10
109.91378294262526
 20
10.082039243805809
 11
109.59104797587588
 21
10.082039243805809
  0
LINE
  8
_0-1_
  6
CONTINUOUS
 62
    3
 10
109.59104797587588
 20
10.082039243805809
 11
109.59104797587588
 21
280.35561316697232
  0
LINE
  8
_0-1_
  6
CONTINUOUS
 62
    3
 10
289.74820746365236
 20
280.35561316697232
 11
289.74820746365236
 21
10.082039243805809
  0
LINE
  8
_0-1_
  6
CONTINUOUS
 62
    3
 10
109.59104797587588
 20
280.35561316697232
 11
289.74820746365236
 21
280.35561316697232
  0
LINE
  8
_0-1_
  6
CONTINUOUS
 62
    3
 10
289.74820746365236
 20
10.082039243805809
 11
109.59104797587588
 21
10.082039243805809
  0
LINE
  8
_0-1_
  6
CONTINUOUS
 62
    3
 10
289.74820746365236
 20
25.082039243805809
 11
109.59104797587588
 21
25.082039243805809
  0
LINE
  8
_0-1_
  6
CONTINUOUS
 62
    3
 10
169.59104797587588
 20
10.082039243805809
 11
169.59104797587588
 21
25.082039243805809
  0
LINE
  8
_0-1_
  6
CONTINUOUS
 62
    3
 10
229.59104797587588
 20
10.082039243805809
 11
229.59104797587588
 21
25.082039243805809
  0
TEXT
  8
_0-1_
 62
    7
 10
111.53633893959282
 20
21.577207655443985
 40
2
 41
1
 50
0
  1
ＴＩＴＬＥ
  0
TEXT
  8
_0-1_
 62
    7
 10
171.46168920362626
 20
21.325420469460653
 40
2
 41
1
 50
0
  1
ＭＯＤＥＬ
  0
TEXT
  8
_0-1_
 62
    7
 10
236.24586551082081
 20
15.198940813772481
 40
4
 41
1
 50
0
  1
日伸制御機工株式会社
  0
TEXT
  8
_0-1_
 62
    7
 10
119.50276243093923
 20
14.378453038674053
 40
4
 41
1
 50
0
  1
スパークケンチャー
  0
LINE
  8
_1-2_
  6
CONTINUOUS
 62
    6
 10
234.1019062910168
 20
136.13891682359946
 11
256.6019062910168
 21
136.13891682359946
  0
LINE
  8
_1-2_
  6
DASHED1
 62
    4
 10
192.8519062910168
 20
120.13891682359946
 11
192.8519062910168
 21
124.13891682359946
  0
LINE
  8
_1-2_
  6
DASHED1
 62
    4
 10
178.8519062910168
 20
120.13891682359946
 11
178.8519062910168
 21
124.13891682359946
  0
LINE
  8
_1-2_
  6
DASHED1
 62
    4
 10
178.8519062910168
 20
120.13891682359946
 11
192.8519062910168
 21
120.13891682359946
  0
LINE
  8
_1-2_
  6
DASHED1
 62
    4
 10
178.8519062910168
 20
124.13891682359946
 11
192.8519062910168
 21
124.13891682359946
  0
LINE
  8
_1-2_
  6
CONTINUOUS
 62
    6
 10
185.3519062910168
 20
161.13891682359946
 11
186.3519062910168
 21
161.13891682359946
  0
ARC
  8
_1-2_
  6
CONTINUOUS
 62
    6
 10
186.25336488551753
 20
147.93696211697198
 40
0.5
 50
216.59041666293757
 51
281.36642136727284
  0
ARC
  8
_1-2_
  6
CONTINUOUS
 62
    6
 10
186.25336488551753
 20
148.93696211697198
 40
0.5
 50
216.59041666293757
 51
281.36642136727284
  0
ARC
  8
_1-2_
  6
CONTINUOUS
 62
    6
 10
185.45044769651608
 20
148.34087153022693
 40
0.5
 50
36.590416662937571
 51
101.36642136727282
  0
ARC
  8
_1-2_
  6
CONTINUOUS
 62
    6
 10
185.45044769651608
 20
147.34087153022693
 40
0.5
 50
36.590416662937571
 51
101.36642136727282
  0
LINE
  8
_1-2_
  6
CONTINUOUS
 62
    6
 10
185.3519062910168
 20
161.13891682359946
 11
185.3519062910168
 21
148.83106495266571
  0
LINE
  8
_1-2_
  6
CONTINUOUS
 62
    6
 10
185.3519062910168
 20
147.83106495266571
 11
185.3519062910168
 21
136.13891682359946
  0
LINE
  8
_1-2_
  6
CONTINUOUS
 62
    6
 10
186.3519062910168
 20
161.13891682359946
 11
186.3519062910168
 21
148.4467686945332
  0
LINE
  8
_1-2_
  6
CONTINUOUS
 62
    6
 10
186.3519062910168
 20
147.4467686945332
 11
186.3519062910168
 21
136.13891682359946
  0
LINE
  8
_1-2_
  6
CONTINUOUS
 62
    6
 10
244.8519062910168
 20
161.13891682359946
 11
245.8519062910168
 21
161.13891682359946
  0
ARC
  8
_1-2_
  6
CONTINUOUS
 62
    6
 10
245.75336488551753
 20
147.93696211697198
 40
0.5
 50
216.59041666293757
 51
281.36642136727284
  0
ARC
  8
_1-2_
  6
CONTINUOUS
 62
    6
 10
245.75336488551753
 20
148.93696211697198
 40
0.5
 50
216.59041666293757
 51
281.36642136727284
  0
ARC
  8
_1-2_
  6
CONTINUOUS
 62
    6
 10
244.95044769651608
 20
148.34087153022693
 40
0.5
 50
36.590416662937571
 51
101.36642136727282
  0
ARC
  8
_1-2_
  6
CONTINUOUS
 62
    6
 10
244.95044769651608
 20
147.34087153022693
 40
0.5
 50
36.590416662937571
 51
101.36642136727282
  0
LINE
  8
_1-2_
  6
CONTINUOUS
 62
    6
 10
244.8519062910168
 20
161.13891682359946
 11
244.8519062910168
 21
148.83106495266571
  0
LINE
  8
_1-2_
  6
CONTINUOUS
 62
    6
 10
244.8519062910168
 20
147.83106495266571
 11
244.8519062910168
 21
136.13891682359946
  0
LINE
  8
_1-2_
  6
CONTINUOUS
 62
    6
 10
245.8519062910168
 20
161.13891682359946
 11
245.8519062910168
 21
148.4467686945332
  0
LINE
  8
_1-2_
  6
CONTINUOUS
 62
    6
 10
245.8519062910168
 20
147.4467686945332
 11
245.8519062910168
 21
136.13891682359946
  0
LINE
  8
_1-2_
  6
CONTINUOUS
 62
    6
 10
171.8519062910168
 20
202.13891682359946
 11
199.8519062910168
 21
202.13891682359946
  0
LINE
  8
_1-2_
  6
CONTINUOUS
 62
    6
 10
200.8519062910168
 20
203.13891682359946
 11
200.8519062910168
 21
184.13891682359946
  0
LINE
  8
_1-2_
  6
CONTINUOUS
 62
    6
 10
199.8519062910168
 20
202.13891682359946
 11
199.8519062910168
 21
185.13891682359946
  0
LINE
  8
_1-2_
  6
CONTINUOUS
 62
    6
 10
171.8519062910168
 20
185.13891682359946
 11
199.8519062910168
 21
185.13891682359946
  0
LINE
  8
_1-2_
  6
CONTINUOUS
 62
    6
 10
171.8519062910168
 20
202.13891682359946
 11
171.8519062910168
 21
185.13891682359946
  0
LINE
  8
_1-2_
  6
CONTINUOUS
 62
    6
 10
170.8519062910168
 20
203.13891682359946
 11
170.8519062910168
 21
184.13891682359946
  0
LINE
  8
_1-2_
  6
CONTINUOUS
 62
    6
 10
210.8519062910168
 20
203.13891682359946
 11
210.8519062910168
 21
184.13891682359946
  0
LINE
  8
_1-2_
  6
CONTINUOUS
 62
    6
 10
160.8519062910168
 20
203.13891682359946
 11
160.8519062910168
 21
184.13891682359946
  0
LINE
  8
_1-2_
  6
CONTINUOUS
 62
    6
 10
160.8519062910168
 20
184.13891682359946
 11
210.8519062910168
 21
184.13891682359946
  0
LINE
  8
_1-2_
  6
CONTINUOUS
 62
    6
 10
160.8519062910168
 20
203.13891682359946
 11
210.8519062910168
 21
203.13891682359946
  0
ARC
  8
_1-2_
  6
CONTINUOUS
 62
    6
 10
165.1019062910168
 20
193.63891682359946
 40
2.25
 50
90
 51
270
  0
LINE
  8
_1-2_
  6
CONTINUOUS
 62
    6
 10
166.6019062910168
 20
191.38891682359946
 11
165.1019062910168
 21
191.38891682359946
  0
LINE
  8
_1-2_
  6
CONTINUOUS
 62
    6
 10
166.6019062910168
 20
195.88891682359946
 11
165.1019062910168
 21
195.88891682359946
  0
ARC
  8
_1-2_
  6
CONTINUOUS
 62
    6
 10
166.6019062910168
 20
193.63891682359946
 40
2.25
 50
270
 51
90
  0
ARC
  8
_1-2_
  6
CONTINUOUS
 62
    6
 10
205.14703666499247
 20
193.63891682359946
 40
2.25
 50
90
 51
270
  0
LINE
  8
_1-2_
  6
CONTINUOUS
 62
    6
 10
206.64703666499247
 20
191.38891682359946
 11
205.14703666499247
 21
191.38891682359946
  0
LINE
  8
_1-2_
  6
CONTINUOUS
 62
    6
 10
206.64703666499247
 20
195.88891682359946
 11
205.14703666499247
 21
195.88891682359946
  0
ARC
  8
_1-2_
  6
CONTINUOUS
 62
    6
 10
206.64703666499247
 20
193.63891682359946
 40
2.25
 50
270
 51
90
  0
LINE
  8
_1-3_ADD_LINE
  6
CENTER1
 62
    7
 10
165.8519062910168
 20
196.81013094163808
 11
165.8519062910168
 21
190.47417701717495
  0
LINE
  8
_1-3_ADD_LINE
  6
CENTER1
 62
    7
 10
205.8519062910168
 20
197.08863441084526
 11
205.8519062910168
 21
190.33492528257136
  0
LINE
  8
_1-3_ADD_LINE
  6
CENTER1
 62
    7
 10
202.06062427347163
 20
193.63891682359946
 11
209.85872141127243
 21
193.63891682359946
  0
LINE
  8
_1-3_ADD_LINE
  6
CENTER1
 62
    7
 10
169.89347358004338
 20
193.63891682359946
 11
161.8168729730354
 21
193.63891682359946
  0
CIRCLE
  8
_1-2_
  6
CONTINUOUS
 62
    6
 10
173.8519062910168
 20
193.63891682359946
 40
0.5
  0
CIRCLE
  8
_1-2_
  6
CONTINUOUS
 62
    6
 10
185.8519062910168
 20
193.63891682359946
 40
0.5
  0
CIRCLE
  8
_1-2_
  6
CONTINUOUS
 62
    6
 10
197.8519062910168
 20
193.63891682359946
 40
0.5
  0
LINE
  8
_1-2_
  6
CONTINUOUS
 62
    6
 10
234.1019062910168
 20
110.13891682359946
 11
256.6019062910168
 21
110.13891682359946
  0
LINE
  8
_1-2_
  6
CONTINUOUS
 62
    6
 10
234.1019062910168
 20
106.13891682359946
 11
256.6019062910168
 21
106.13891682359946
  0
LINE
  8
_1-1_
  6
CONTINUOUS
 62
    4
 10
267.6019062910168
 20
110.13891682359946
 11
267.6019062910168
 21
106.13891682359946
  0
LINE
  8
_1-1_
  6
CONTINUOUS
 62
    4
 10
267.6019062910168
 20
110.13891682359946
 11
267.08426820081178
 21
112.07076847617759
  0
LINE
  8
_1-1_
  6
CONTINUOUS
 62
    4
 10
267.6019062910168
 20
110.13891682359946
 11
268.11954438122183
 21
112.07076847617759
  0
LINE
  8
_1-1_
  6
CONTINUOUS
 62
    4
 10
267.6019062910168
 20
106.13891682359946
 11
267.08426820081178
 21
104.20706517102133
  0
LINE
  8
_1-1_
  6
CONTINUOUS
 62
    4
 10
267.6019062910168
 20
106.13891682359946
 11
268.11954438122183
 21
104.20706517102133
  0
LINE
  8
_1-1_
  6
CONTINUOUS
 62
    4
 10
267.6019062910168
 20
110.13891682359946
 11
257.6019062910168
 21
110.13891682359946
  0
LINE
  8
_1-1_
  6
CONTINUOUS
 62
    4
 10
267.6019062910168
 20
106.13891682359946
 11
257.6019062910168
 21
106.13891682359946
  0
TEXT
  8
_1-1_
 62
    7
 10
267.1019062910168
 20
107.38891682359946
 40
3
 41
1
 50
90
  1
4
  0
LINE
  8
_1-1_
  6
CONTINUOUS
 62
    4
 10
267.6019062910168
 20
110.13891682359946
 11
267.6019062910168
 21
114.07333161564704
  0
LINE
  8
_1-2_
  6
CONTINUOUS
 62
    6
 10
234.1019062910168
 20
136.13891682359946
 11
234.1019062910168
 21
106.13891682359946
  0
LINE
  8
_1-2_
  6
CONTINUOUS
 62
    6
 10
256.6019062910168
 20
136.13891682359946
 11
256.6019062910168
 21
106.13891682359946
  0
LINE
  8
_1-1_
  6
CONTINUOUS
 62
    4
 10
174.31788172049443
 20
158.11439599745819
 11
174.70592277354945
 21
160.07639093658111
  0
LINE
  8
_1-1_
  6
CONTINUOUS
 62
    4
 10
174.31788172049443
 20
158.11439599745819
 11
175.63493259971278
 21
159.61951293030765
  0
LINE
  8
_1-2_
  6
CONTINUOUS
 62
    6
 10
173.3519062910168
 20
161.13891682359946
 11
174.3519062910168
 21
161.13891682359946
  0
ARC
  8
_1-2_
  6
CONTINUOUS
 62
    6
 10
174.25336488551753
 20
147.93696211697198
 40
0.5
 50
216.59041666293757
 51
281.36642136727284
  0
ARC
  8
_1-2_
  6
CONTINUOUS
 62
    6
 10
174.25336488551753
 20
148.93696211697198
 40
0.5
 50
216.59041666293757
 51
281.36642136727284
  0
ARC
  8
_1-2_
  6
CONTINUOUS
 62
    6
 10
173.45044769651608
 20
148.34087153022693
 40
0.5
 50
36.590416662937571
 51
101.36642136727282
  0
ARC
  8
_1-2_
  6
CONTINUOUS
 62
    6
 10
173.45044769651608
 20
147.34087153022693
 40
0.5
 50
36.590416662937571
 51
101.36642136727282
  0
LINE
  8
_1-2_
  6
CONTINUOUS
 62
    6
 10
173.3519062910168
 20
161.13891682359946
 11
173.3519062910168
 21
148.83106495266571
  0
LINE
  8
_1-2_
  6
CONTINUOUS
 62
    6
 10
173.3519062910168
 20
147.83106495266571
 11
173.3519062910168
 21
136.13891682359946
  0
LINE
  8
_1-2_
  6
CONTINUOUS
 62
    6
 10
174.3519062910168
 20
161.13891682359946
 11
174.3519062910168
 21
148.4467686945332
  0
LINE
  8
_1-2_
  6
CONTINUOUS
 62
    6
 10
174.3519062910168
 20
147.4467686945332
 11
174.3519062910168
 21
136.13891682359946
  0
LINE
  8
_1-2_
  6
CONTINUOUS
 62
    6
 10
197.3519062910168
 20
161.13891682359946
 11
198.3519062910168
 21
161.13891682359946
  0
ARC
  8
_1-2_
  6
CONTINUOUS
 62
    6
 10
198.25336488551753
 20
147.93696211697198
 40
0.5
 50
216.59041666293757
 51
281.36642136727284
  0
ARC
  8
_1-2_
  6
CONTINUOUS
 62
    6
 10
198.25336488551753
 20
148.93696211697198
 40
0.5
 50
216.59041666293757
 51
281.36642136727284
  0
ARC
  8
_1-2_
  6
CONTINUOUS
 62
    6
 10
197.45044769651608
 20
148.34087153022693
 40
0.5
 50
36.590416662937571
 51
101.36642136727282
  0
ARC
  8
_1-2_
  6
CONTINUOUS
 62
    6
 10
197.45044769651608
 20
147.34087153022693
 40
0.5
 50
36.590416662937571
 51
101.36642136727282
  0
LINE
  8
_1-2_
  6
CONTINUOUS
 62
    6
 10
197.3519062910168
 20
161.13891682359946
 11
197.3519062910168
 21
148.83106495266571
  0
LINE
  8
_1-2_
  6
CONTINUOUS
 62
    6
 10
197.3519062910168
 20
147.83106495266571
 11
197.3519062910168
 21
136.13891682359946
  0
LINE
  8
_1-2_
  6
CONTINUOUS
 62
    6
 10
198.3519062910168
 20
161.13891682359946
 11
198.3519062910168
 21
148.4467686945332
  0
LINE
  8
_1-2_
  6
CONTINUOUS
 62
    6
 10
198.3519062910168
 20
147.4467686945332
 11
198.3519062910168
 21
136.13891682359946
  0
LINE
  8
_1-1_
  6
CONTINUOUS
 62
    4
 10
179.02866579719239
 20
167.79609169690315
 11
209.73986619900052
 21
167.79609169690315
  0
TEXT
  8
_1-1_
 62
    7
 10
180.00053922762936
 20
172.84983353517535
 40
3
 41
1
 50
0
  1
耐熱ビニール電線(赤)
  0
LINE
  8
_1-1_
  6
CONTINUOUS
 62
    4
 10
174.3519062910168
 20
158.28642943218151
 11
179.02866579719239
 21
167.79609169690315
  0
LINE
  8
_1-2_
  6
CONTINUOUS
 62
    6
 10
200.8519062910168
 20
136.13891682359946
 11
170.8519062910168
 21
136.13891682359946
  0
LINE
  8
_1-2_
  6
CONTINUOUS
 62
    6
 10
160.8519062910168
 20
110.13891682359946
 11
160.8519062910168
 21
106.13891682359946
  0
LINE
  8
_1-2_
  6
CONTINUOUS
 62
    6
 10
160.8519062910168
 20
106.13891682359946
 11
210.8519062910168
 21
106.13891682359946
  0
LINE
  8
_1-2_
  6
CONTINUOUS
 62
    6
 10
210.8519062910168
 20
110.13891682359946
 11
210.8519062910168
 21
106.13891682359946
  0
LINE
  8
_1-2_
  6
CONTINUOUS
 62
    6
 10
210.8519062910168
 20
110.13891682359946
 11
200.8519062910168
 21
110.13891682359946
  0
LINE
  8
_1-2_
  6
CONTINUOUS
 62
    6
 10
170.8519062910168
 20
110.13891682359946
 11
160.8519062910168
 21
110.13891682359946
  0
LINE
  8
_1-1_
  6
CONTINUOUS
 62
    4
 10
221.8519062910168
 20
136.13891682359946
 11
221.33426820081178
 21
134.20706517102133
  0
LINE
  8
_1-1_
  6
CONTINUOUS
 62
    4
 10
221.8519062910168
 20
136.13891682359946
 11
222.36954438122186
 21
134.20706517102133
  0
LINE
  8
_1-1_
  6
CONTINUOUS
 62
    4
 10
221.8519062910168
 20
136.13891682359946
 11
211.8519062910168
 21
136.13891682359946
  0
LINE
  8
_1-1_
  6
CONTINUOUS
 62
    4
 10
221.8519062910168
 20
136.13891682359946
 11
221.8519062910168
 21
161.13891682359946
  0
LINE
  8
_1-1_
  6
CONTINUOUS
 62
    4
 10
221.8519062910168
 20
136.13891682359946
 11
221.33426820081178
 21
138.07076847617759
  0
LINE
  8
_1-1_
  6
CONTINUOUS
 62
    4
 10
221.8519062910168
 20
136.13891682359946
 11
222.36954438122186
 21
138.07076847617759
  0
LINE
  8
_1-1_
  6
CONTINUOUS
 62
    4
 10
221.8519062910168
 20
161.13891682359946
 11
221.33426820081178
 21
159.20706517102133
  0
LINE
  8
_1-1_
  6
CONTINUOUS
 62
    4
 10
221.8519062910168
 20
161.13891682359946
 11
222.36954438122186
 21
159.20706517102133
  0
LINE
  8
_1-1_
  6
CONTINUOUS
 62
    4
 10
221.8519062910168
 20
161.13891682359946
 11
211.8519062910168
 21
161.13891682359946
  0
TEXT
  8
_1-1_
 62
    7
 10
221.3519062910168
 20
146.13891682359946
 40
3
 41
1
 50
90
  1
300
  0
LINE
  8
_1-1_
  6
CONTINUOUS
 62
    4
 10
221.8519062910168
 20
106.13891682359946
 11
221.33426820081175
 21
108.07076847617759
  0
LINE
  8
_1-1_
  6
CONTINUOUS
 62
    4
 10
221.8519062910168
 20
106.13891682359946
 11
222.36954438122186
 21
108.07076847617759
  0
LINE
  8
_1-1_
  6
CONTINUOUS
 62
    4
 10
221.8519062910168
 20
106.13891682359946
 11
211.8519062910168
 21
106.13891682359946
  0
LINE
  8
_1-1_
  6
CONTINUOUS
 62
    4
 10
221.8519062910168
 20
106.13891682359946
 11
221.8519062910168
 21
136.13891682359946
  0
LINE
  8
_1-2_
  6
CONTINUOUS
 62
    6
 10
200.8519062910168
 20
136.13891682359946
 11
200.8519062910168
 21
110.13891682359946
  0
LINE
  8
_1-2_
  6
CONTINUOUS
 62
    6
 10
170.8519062910168
 20
136.13891682359946
 11
170.8519062910168
 21
110.13891682359946
  0
LINE
  8
_1-3_ADD_LINE
  6
CENTER1
 62
    7
 10
165.8519062910168
 20
111.08062940691677
 11
165.8519062910168
 21
105.03978816275449
  0
LINE
  8
_1-3_ADD_LINE
  6
CENTER1
 62
    7
 10
205.8519062910168
 20
111.87547693904338
 11
205.8519062910168
 21
104.72184914990385
  0
LINE
  8
_1-3_ADD_LINE
  6
CENTER1
 62
    7
 10
245.3519062910168
 20
112.16549472626821
 11
245.3519062910168
 21
104.52837769964842
  0
LINE
  8
_1-1_
  6
CONTINUOUS
 62
    4
 10
206.69883536688579
 20
196.03876116557657
 11
212.03488127513035
 21
208.08528904934082
  0
LINE
  8
_1-1_
  6
CONTINUOUS
 62
    4
 10
206.69883536688579
 20
196.03876116557657
 11
207.00794894558894
 21
198.01472897793116
  0
LINE
  8
_1-1_
  6
CONTINUOUS
 62
    4
 10
206.69883536688579
 20
196.03876116557657
 11
207.95451948487474
 21
197.59544269878444
  0
LINE
  8
_1-1_
  6
CONTINUOUS
 62
    4
 10
221.8519062910168
 20
184.13891682359946
 11
221.8519062910168
 21
203.13891682359946
  0
LINE
  8
_1-1_
  6
CONTINUOUS
 62
    4
 10
221.8519062910168
 20
184.13891682359946
 11
221.33426820081175
 21
186.07076847617759
  0
LINE
  8
_1-1_
  6
CONTINUOUS
 62
    4
 10
221.8519062910168
 20
184.13891682359946
 11
222.36954438122186
 21
186.07076847617759
  0
LINE
  8
_1-1_
  6
CONTINUOUS
 62
    4
 10
221.8519062910168
 20
203.13891682359946
 11
221.33426820081178
 21
201.20706517102133
  0
LINE
  8
_1-1_
  6
CONTINUOUS
 62
    4
 10
221.8519062910168
 20
203.13891682359946
 11
222.36954438122186
 21
201.20706517102133
  0
LINE
  8
_1-1_
  6
CONTINUOUS
 62
    4
 10
221.8519062910168
 20
184.13891682359946
 11
211.8519062910168
 21
184.13891682359946
  0
LINE
  8
_1-1_
  6
CONTINUOUS
 62
    4
 10
221.8519062910168
 20
203.13891682359946
 11
211.8519062910168
 21
203.13891682359946
  0
TEXT
  8
_1-1_
 62
    7
 10
221.3519062910168
 20
192.01391682359946
 40
3
 41
1
 50
90
  1
19
  0
LINE
  8
_1-1_
  6
CONTINUOUS
 62
    4
 10
170.8519062910168
 20
95.138916823599459
 11
200.8519062910168
 21
95.138916823599459
  0
LINE
  8
_1-1_
  6
CONTINUOUS
 62
    4
 10
170.8519062910168
 20
95.138916823599459
 11
172.78375794359494
 21
95.656554913804499
  0
LINE
  8
_1-1_
  6
CONTINUOUS
 62
    4
 10
170.8519062910168
 20
95.138916823599459
 11
172.78375794359494
 21
94.621278733394419
  0
LINE
  8
_1-1_
  6
CONTINUOUS
 62
    4
 10
200.8519062910168
 20
95.138916823599459
 11
198.92005463843867
 21
95.656554913804499
  0
LINE
  8
_1-1_
  6
CONTINUOUS
 62
    4
 10
200.8519062910168
 20
95.138916823599459
 11
198.92005463843867
 21
94.621278733394419
  0
LINE
  8
_1-1_
  6
CONTINUOUS
 62
    4
 10
170.8519062910168
 20
95.138916823599459
 11
170.8519062910168
 21
105.13891682359946
  0
LINE
  8
_1-1_
  6
CONTINUOUS
 62
    4
 10
200.8519062910168
 20
95.138916823599459
 11
200.8519062910168
 21
105.13891682359946
  0
TEXT
  8
_1-1_
 62
    7
 10
184.2269062910168
 20
95.638916823599459
 40
3
 41
1
 50
0
  1
30
  0
LINE
  8
_1-1_
  6
CONTINUOUS
 62
    4
 10
165.8519062910168
 20
90.138916823599459
 11
205.8519062910168
 21
90.138916823599459
  0
LINE
  8
_1-1_
  6
CONTINUOUS
 62
    4
 10
165.8519062910168
 20
90.138916823599459
 11
167.78375794359494
 21
90.656554913804499
  0
LINE
  8
_1-1_
  6
CONTINUOUS
 62
    4
 10
165.8519062910168
 20
90.138916823599459
 11
167.78375794359494
 21
89.621278733394419
  0
LINE
  8
_1-1_
  6
CONTINUOUS
 62
    4
 10
205.8519062910168
 20
90.138916823599459
 11
203.92005463843867
 21
90.656554913804499
  0
LINE
  8
_1-1_
  6
CONTINUOUS
 62
    4
 10
205.8519062910168
 20
90.138916823599459
 11
203.92005463843867
 21
89.621278733394419
  0
LINE
  8
_1-1_
  6
CONTINUOUS
 62
    4
 10
165.8519062910168
 20
90.138916823599459
 11
165.8519062910168
 21
100.13891682359946
  0
TEXT
  8
_1-1_
 62
    7
 10
184.2269062910168
 20
90.638916823599459
 40
3
 41
1
 50
0
  1
40
  0
LINE
  8
_1-1_
  6
CONTINUOUS
 62
    4
 10
160.8519062910168
 20
85.138916823599459
 11
210.8519062910168
 21
85.138916823599459
  0
LINE
  8
_1-1_
  6
CONTINUOUS
 62
    4
 10
160.8519062910168
 20
85.138916823599459
 11
162.78375794359494
 21
85.656554913804499
  0
LINE
  8
_1-1_
  6
CONTINUOUS
 62
    4
 10
160.8519062910168
 20
85.138916823599459
 11
162.78375794359494
 21
84.621278733394419
  0
LINE
  8
_1-1_
  6
CONTINUOUS
 62
    4
 10
210.8519062910168
 20
85.138916823599459
 11
208.92005463843867
 21
85.656554913804499
  0
LINE
  8
_1-1_
  6
CONTINUOUS
 62
    4
 10
210.8519062910168
 20
85.138916823599459
 11
208.92005463843867
 21
84.621278733394419
  0
TEXT
  8
_1-1_
 62
    7
 10
184.2269062910168
 20
85.638916823599459
 40
3
 41
1
 50
0
  1
50
  0
LINE
  8
_1-1_
  6
CONTINUOUS
 62
    4
 10
160.8519062910168
 20
85.138916823599459
 11
160.8519062910168
 21
105.13891682359946
  0
LINE
  8
_1-1_
  6
CONTINUOUS
 62
    4
 10
165.8519062910168
 20
105.13891682359946
 11
165.8519062910168
 21
94.200904068307381
  0
LINE
  8
_1-1_
  6
CONTINUOUS
 62
    4
 10
205.8519062910168
 20
90.138916823599459
 11
205.8519062910168
 21
105.13891682359946
  0
LINE
  8
_1-1_
  6
CONTINUOUS
 62
    4
 10
210.8519062910168
 20
85.138916823599459
 11
210.8519062910168
 21
105.13891682359946
  0
TEXT
  8
_1-1_
 62
    7
 10
213.65186488368931
 20
208.5703841319085
 40
3
 41
1
 50
0
  1
4.5×6 長穴
  0
LINE
  8
_1-1_
  6
CONTINUOUS
 62
    4
 10
212.03488127513035
 20
208.08528904934082
 11
233.78453038674033
 21
208.08528904934082
  0
TEXT
  8
_1-1_
 62
    7
 10
221.3519062910168
 20
119.26391682359946
 40
3
 41
1
 50
90
  1
30
  0
TEXT
  8
_1-1_
 62
    7
 10
180.70858642898568
 20
168.62759073288362
 40
3
 41
1
 50
0
  1
0.75mm
  0
TEXT
  8
_1-1_
 62
    4
 10
191.33861492739427
 20
170.05505465201139
 40
2
 41
1
 50
0
  1
2
  0
TEXT
  8
_0-1_
 62
    7
 10
183.54696132596683
 20
14.842541436464074
 40
4
 41
1
 50
0
  1
SQ231503F
  0
TEXT
  8
_0-1_
 62
    7
 10
113.00552486187846
 20
32.47790055248619
 40
4
 41
1
 50
0
  1
同一形状品：SQ231503F,SQ250503F
  0
TEXT
  8
_1-2_
 62
    7
 10
183.08539794267574
 20
120.87376069283422
 40
2.5
 41
1
 50
0
  1
型式
  0
ENDSEC
  0
EOF
