  0
SECTION
  2
HEADER
  9
$ACADVER
  1
AC1009
  9
$INSBASE
 10
0
 20
0
 30
0
  9
$EXTMIN
 10
0
 20
0
  9
$EXTMAX
 10
420
 20
297
  9
$LIMMIN
 10
0
 20
0
  9
$LIMMAX
 10
420
 20
297
  9
$LTSCALE
 40
1
  0
ENDSEC
  0
SECTION
  2
TABLES
  0
TABLE
  2
LTYPE
 70
     9
  0
LTYPE
  2
CONTINUOUS
 70
    64
  3
実線
 72
    65
 73
     0
 40
0.0
  0
LTYPE
  2
DASHED1
 70
    64
  3
--  --  --  --  --  --  --  --  
 72
    65
 73
     2
 40
2.5
 49
1.25
 49
-1.25
  0
LTYPE
  2
DASHED2
 70
    64
  3
----    ----    ----    ----    
 72
    65
 73
     2
 40
5.0
 49
2.5
 49
-2.5
  0
LTYPE
  2
DASHED3
 70
    64
  3
------  ------  ------  ------  
 72
    65
 73
     2
 40
5.0
 49
3.75
 49
-1.25
  0
LTYPE
  2
CENTER1
 70
    64
  3
----- - ----- - ----- - ----- - 
 72
    65
 73
     4
 40
10.0
 49
6.25
 49
-1.25
 49
1.25
 49
-1.25
  0
LTYPE
  2
CENTER2
 70
    64
  3
----------  --  ----------  --  
 72
    65
 73
     4
 40
20.0
 49
12.5
 49
-2.5
 49
2.5
 49
-2.5
  0
LTYPE
  2
PHANTOM1
 70
    64
  3
--- - - --- - - --- - - --- - - 
 72
    65
 73
     6
 40
10.0
 49
3.25
 49
-1.25
 49
1.25
 49
-1.25
 49
1.25
 49
-1.25
  0
LTYPE
  2
PHANTOM2
 70
    64
  3
--------  -  -  --------  -  -  
 72
    65
 73
     6
 40
20.0
 49
10.0
 49
-2.5
 49
1.25
 49
-2.5
 49
1.25
 49
-2.5
  0
LTYPE
  2
DOT
 70
    64
  3
-   -   -   -   -   -   -   -   
 72
    65
 73
     2
 40
2.5
 49
0.625
 49
-1.875
  0
LTYPE
  2
DUMMY
 70
    64
  3
ダミー
 72
    65
 73
     0
 40
0.0
  0
LTYPE
  2
RAND1
 70
    64
  3
ランダム線1
 72
    65
 73
     4
 40
10.0
 49
1.0
 49
-2.0
 49
3.0
 49
-4.0
  0
LTYPE
  2
RAND2
 70
    64
  3
ランダム線2
 72
    65
 73
     4
 40
14.0
 49
2.0
 49
-3.0
 49
4.0
 49
-5.0
  0
LTYPE
  2
RAND3
 70
    64
  3
ランダム線3
 72
    65
 73
     4
 40
18.0
 49
3.0
 49
-4.0
 49
5.0
 49
-6.0
  0
LTYPE
  2
RAND4
 70
    64
  3
ランダム線4
 72
    65
 73
     4
 40
22.0
 49
4.0
 49
-5.0
 49
6.0
 49
-7.0
  0
LTYPE
  2
RAND5
 70
    64
  3
ランダム線5
 72
    65
 73
     4
 40
26.0
 49
5.0
 49
-6.0
 49
7.0
 49
-8.0
  0
LTYPE
  2
LONG1
 70
    64
  3
----------  --  ----------  --  
 72
    65
 73
     4
 40
40.0
 49
32.5
 49
-2.5
 49
2.5
 49
-2.5
  0
LTYPE
  2
LONG2
 70
    64
  3
--------  -  -  --------  -  -  
 72
    65
 73
     6
 40
40.0
 49
30.0
 49
-2.5
 49
1.25
 49
-2.5
 49
1.25
 49
-2.5
  0
LTYPE
  2
LONG3
 70
    64
  3
+++++++++++++++..+++++++++++++++
 72
    65
 73
     2
 40
40.0
 49
37.5
 49
-2.5
  0
LTYPE
  2
LONG4
 70
    64
  3
+++++++++++++++..+++++++++++++++
 72
    65
 73
     2
 40
80.0
 49
75.0
 49
-5.0
  0
LTYPE
  2
LONG5
 70
    64
  3
----------  --  ----------  --  
 72
    65
 73
     4
 40
60.0
 49
37.5
 49
-7.5
 49
7.5
 49
-7.5
  0
LTYPE
  2
dashed
 70
   64
  3
-------   -------------   ------
 72
   65
 73
    2
 40
7.5
 49
6
 49
-1.5
  0
LTYPE
  2
dashed_spaced
 70
   64
  3
----        --------        ----
 72
   65
 73
    2
 40
12
 49
6
 49
-6
  0
LTYPE
  2
long_dashed_dotted
 70
   64
  3
------------- --- --------------
 72
   65
 73
    4
 40
15.25
 49
12
 49
-1.5
 49
0.25
 49
-1.5
  0
LTYPE
  2
long_dashed_double-dotted
 70
   64
  3
----------- --- --- ------------
 72
   65
 73
    6
 40
17
 49
12
 49
-1.5
 49
0.25
 49
-1.5
 49
0.25
 49
-1.5
  0
LTYPE
  2
long_dashed_triplicate-dotted
 70
   64
  3
--------- --- --- --- ----------
 72
   65
 73
    8
 40
18.75
 49
12
 49
-1.5
 49
0.25
 49
-1.5
 49
0.25
 49
-1.5
 49
0.25
 49
-1.5
  0
LTYPE
  2
dotted
 70
   64
  3
   -       -       -       -    
 72
   65
 73
    2
 40
1.75
 49
0.25
 49
-1.5
  0
LTYPE
  2
chain
 70
   64
  3
-------------- -- --------------
 72
   65
 73
    4
 40
18.5
 49
12
 49
-1.5
 49
3.5
 49
-1.5
  0
LTYPE
  2
chain_double_dash
 70
   64
  3
------------ -- -- -------------
 72
   65
 73
    6
 40
23.5
 49
12
 49
-1.5
 49
3.5
 49
-1.5
 49
3.5
 49
-1.5
  0
LTYPE
  2
dashed_dotted
 70
   64
  3
-----------     -     ----------
 72
   65
 73
    4
 40
9.25
 49
6
 49
-1.5
 49
0.25
 49
-1.5
  0
LTYPE
  2
double-dashed_dotted
 70
   64
  3
------   -----------   -   -----
 72
   65
 73
    6
 40
16.75
 49
6
 49
-1.5
 49
6
 49
-1.5
 49
0.25
 49
-1.5
  0
LTYPE
  2
dashed_double-dotted
 70
   64
  3
---------    -    -    ---------
 72
   65
 73
    6
 40
11
 49
6
 49
-1.5
 49
0.25
 49
-1.5
 49
0.25
 49
-1.5
  0
LTYPE
  2
double-dashed_double-dotted
 70
   64
  3
-----   ---------   -   -   ----
 72
   65
 73
    8
 40
18.5
 49
6
 49
-1.5
 49
6
 49
-1.5
 49
0.25
 49
-1.5
 49
0.25
 49
-1.5
  0
LTYPE
  2
dashed_triplicate-dotted
 70
   64
  3
-------    -    -    -    ------
 72
   65
 73
    8
 40
12.75
 49
6
 49
-1.5
 49
0.25
 49
-1.5
 49
0.25
 49
-1.5
 49
0.25
 49
-1.5
  0
LTYPE
  2
double-dashed_triplicate-dotted
 70
   64
  3
-----  ---------  -  -  -  -----
 72
   65
 73
   10
 40
20.25
 49
6
 49
-1.5
 49
6
 49
-1.5
 49
0.25
 49
-1.5
 49
0.25
 49
-1.5
 49
0.25
 49
-1.5
  0
LTYPE
  2
undefined
 70
   64
  3
--------------------------------
 72
   65
 73
    0
 40
0
  0
ENDTAB
  0
TABLE
  2
STYLE
  5
3
100
AcDbSymbolTable
 70
     1
  0
STYLE
  5
10
100
AcDbSymbolTableRecord
100
AcDbTextStyleTableRecord
  2
STANDARD
 70
     0
 40
0.0
 41
1.0
 50
0.0
 71
     0
 42
0.2
  3
txt
  4
bigfont.shx
  0
STYLE
  5
26
100
AcDbSymbolTableRecord
100
AcDbTextStyleTableRecord
  2
TATEGAKI
 70
    68
 40
0.0
 41
1.0
 50
0.0
 71
     0
 42
1.0
  3
txt
  4
bigfont.shx
  0
ENDTAB
  0
TABLE
  2
LAYER
 70
    5
  0
LAYER
  2
_0-1_
 70
   64
 62
    7
  6
CONTINUOUS
  0
LAYER
  2
_1-1_
 70
   64
 62
    7
  6
CONTINUOUS
  0
LAYER
  2
_1-2_
 70
   64
 62
    7
  6
CONTINUOUS
  0
LAYER
  2
_1-3_ADD_LINE
 70
   64
 62
    7
  6
CONTINUOUS
  0
LAYER
  2
ADD_LINE
 70
   64
 62
    7
  6
CONTINUOUS
  0
ENDTAB
  0
ENDSEC
  0
SECTION
  2
BLOCKS
  0
ENDSEC
  0
SECTION
  2
ENTITIES
  0
LINE
  8
_0-1_
  6
CONTINUOUS
 62
    3
 10
109.91378294262526
 20
10.082039243805809
 11
109.59104797587588
 21
10.082039243805809
  0
LINE
  8
_0-1_
  6
CONTINUOUS
 62
    3
 10
109.59104797587588
 20
10.082039243805809
 11
109.59104797587588
 21
280.35561316697232
  0
LINE
  8
_0-1_
  6
CONTINUOUS
 62
    3
 10
289.74820746365236
 20
280.35561316697232
 11
289.74820746365236
 21
10.082039243805809
  0
LINE
  8
_0-1_
  6
CONTINUOUS
 62
    3
 10
109.59104797587588
 20
280.35561316697232
 11
289.74820746365236
 21
280.35561316697232
  0
LINE
  8
_0-1_
  6
CONTINUOUS
 62
    3
 10
289.74820746365236
 20
10.082039243805809
 11
109.59104797587588
 21
10.082039243805809
  0
LINE
  8
_0-1_
  6
CONTINUOUS
 62
    3
 10
289.74820746365236
 20
25.082039243805809
 11
109.59104797587588
 21
25.082039243805809
  0
LINE
  8
_0-1_
  6
CONTINUOUS
 62
    3
 10
169.59104797587588
 20
10.082039243805809
 11
169.59104797587588
 21
25.082039243805809
  0
LINE
  8
_0-1_
  6
CONTINUOUS
 62
    3
 10
229.59104797587588
 20
10.082039243805809
 11
229.59104797587588
 21
25.082039243805809
  0
TEXT
  8
_0-1_
 62
    7
 10
111.53633893959282
 20
21.577207655443985
 40
2
 41
1
 50
0
  1
ＴＩＴＬＥ
  0
TEXT
  8
_0-1_
 62
    7
 10
171.46168920362626
 20
21.325420469460653
 40
2
 41
1
 50
0
  1
ＭＯＤＥＬ
  0
TEXT
  8
_0-1_
 62
    7
 10
236.24586551082081
 20
15.198940813772481
 40
4
 41
1
 50
0
  1
日伸制御機工株式会社
  0
LINE
  8
_1-2_
  6
CONTINUOUS
 62
    6
 10
174.8519062910168
 20
136.13891682359946
 11
196.8519062910168
 21
136.13891682359946
  0
LINE
  8
_1-2_
  6
CONTINUOUS
 62
    6
 10
174.8519062910168
 20
136.13891682359946
 11
196.8519062910168
 21
136.13891682359946
  0
LINE
  8
_1-1_
  6
CONTINUOUS
 62
    4
 10
207.8519062910168
 20
136.13891682359946
 11
207.33426820081172
 21
134.2070651710213
  0
LINE
  8
_1-1_
  6
CONTINUOUS
 62
    4
 10
207.8519062910168
 20
136.13891682359946
 11
208.36954438122183
 21
134.2070651710213
  0
LINE
  8
_1-1_
  6
CONTINUOUS
 62
    4
 10
207.8519062910168
 20
136.13891682359946
 11
197.8519062910168
 21
136.13891682359946
  0
LINE
  8
_1-1_
  6
CONTINUOUS
 62
    4
 10
207.8519062910168
 20
136.13891682359946
 11
207.33426820081172
 21
138.07076847617759
  0
LINE
  8
_1-1_
  6
CONTINUOUS
 62
    4
 10
207.8519062910168
 20
136.13891682359946
 11
208.36954438122183
 21
138.07076847617759
  0
LINE
  8
_1-1_
  6
CONTINUOUS
 62
    4
 10
207.8519062910168
 20
136.13891682359946
 11
197.8519062910168
 21
136.13891682359946
  0
LINE
  8
_1-1_
  6
CONTINUOUS
 62
    4
 10
207.8519062910168
 20
161.13891682359946
 11
207.33426820081172
 21
159.2070651710213
  0
LINE
  8
_1-1_
  6
CONTINUOUS
 62
    4
 10
207.8519062910168
 20
161.13891682359946
 11
208.36954438122183
 21
159.2070651710213
  0
LINE
  8
_1-1_
  6
CONTINUOUS
 62
    4
 10
207.8519062910168
 20
161.13891682359946
 11
197.8519062910168
 21
161.13891682359946
  0
LINE
  8
_1-1_
  6
CONTINUOUS
 62
    4
 10
207.8519062910168
 20
161.13891682359946
 11
207.8519062910168
 21
136.13891682359946
  0
TEXT
  8
_1-1_
 62
    7
 10
182.46207935710697
 20
172.67780010045203
 40
3
 41
1
 50
0
  1
耐熱ビニール電線
  0
LINE
  8
_1-1_
  6
CONTINUOUS
 62
    4
 10
181.49020592667003
 20
167.6240582621798
 11
212.20140632847816
 21
167.6240582621798
  0
LINE
  8
_1-2_
  6
CONTINUOUS
 62
    6
 10
175.9519062910168
 20
161.13891682359946
 11
176.75190629101681
 21
161.13891682359946
  0
LINE
  8
_1-1_
  6
CONTINUOUS
 62
    4
 10
176.81344642049444
 20
158.11439599745819
 11
181.49020592667003
 21
167.6240582621798
  0
LINE
  8
_1-1_
  6
CONTINUOUS
 62
    4
 10
176.81344642049444
 20
158.11439599745819
 11
177.20148747354943
 21
160.07639093658111
  0
LINE
  8
_1-1_
  6
CONTINUOUS
 62
    4
 10
176.81344642049444
 20
158.11439599745819
 11
178.13049729971277
 21
159.61951293030765
  0
LINE
  8
_1-2_
  6
CONTINUOUS
 62
    6
 10
175.9519062910168
 20
161.13891682359946
 11
175.9519062910168
 21
148.84086940272451
  0
LINE
  8
_1-2_
  6
CONTINUOUS
 62
    6
 10
175.9519062910168
 20
147.84086940272451
 11
175.9519062910168
 21
136.13891682359946
  0
LINE
  8
_1-2_
  6
CONTINUOUS
 62
    6
 10
176.75190629101681
 20
161.13891682359946
 11
176.75190629101681
 21
148.43696424447441
  0
LINE
  8
_1-2_
  6
CONTINUOUS
 62
    6
 10
176.75190629101681
 20
147.43696424447441
 11
176.75190629101681
 21
136.13891682359946
  0
ARC
  8
_1-2_
  6
CONTINUOUS
 62
    6
 10
175.95044769651608
 20
148.34087153022693
 40
0.5
 50
36.590416662937571
 51
89.832857145111078
  0
ARC
  8
_1-2_
  6
CONTINUOUS
 62
    6
 10
176.75336488551753
 20
148.93696211697198
 40
0.5
 50
216.59041666293757
 51
269.83285714511106
  0
ARC
  8
_1-2_
  6
CONTINUOUS
 62
    6
 10
176.75336488551753
 20
147.93696211697198
 40
0.5
 50
216.59041666293757
 51
269.83285714511106
  0
ARC
  8
_1-2_
  6
CONTINUOUS
 62
    6
 10
175.95044769651608
 20
147.34087153022693
 40
0.5
 50
36.590416662937571
 51
89.832857145111078
  0
LINE
  8
_1-2_
  6
CONTINUOUS
 62
    6
 10
194.9519062910168
 20
161.13891682359946
 11
195.75190629101681
 21
161.13891682359946
  0
LINE
  8
_1-2_
  6
CONTINUOUS
 62
    6
 10
194.9519062910168
 20
161.13891682359946
 11
194.9519062910168
 21
148.84086940272451
  0
LINE
  8
_1-2_
  6
CONTINUOUS
 62
    6
 10
194.9519062910168
 20
147.84086940272451
 11
194.9519062910168
 21
136.13891682359946
  0
LINE
  8
_1-2_
  6
CONTINUOUS
 62
    6
 10
195.75190629101681
 20
161.13891682359946
 11
195.75190629101681
 21
148.43696424447441
  0
LINE
  8
_1-2_
  6
CONTINUOUS
 62
    6
 10
195.75190629101681
 20
147.43696424447441
 11
195.75190629101681
 21
136.13891682359946
  0
ARC
  8
_1-2_
  6
CONTINUOUS
 62
    6
 10
194.95044769651608
 20
148.34087153022693
 40
0.5
 50
36.590416662937571
 51
89.832857145111078
  0
ARC
  8
_1-2_
  6
CONTINUOUS
 62
    6
 10
195.75336488551753
 20
148.93696211697198
 40
0.5
 50
216.59041666293757
 51
269.83285714511106
  0
ARC
  8
_1-2_
  6
CONTINUOUS
 62
    6
 10
195.75336488551753
 20
147.93696211697198
 40
0.5
 50
216.59041666293757
 51
269.83285714511106
  0
ARC
  8
_1-2_
  6
CONTINUOUS
 62
    6
 10
194.95044769651608
 20
147.34087153022693
 40
0.5
 50
36.590416662937571
 51
89.832857145111078
  0
LINE
  8
_1-2_
  6
CONTINUOUS
 62
    6
 10
229.95190629101677
 20
161.13891682359946
 11
230.75190629101678
 21
161.13891682359946
  0
LINE
  8
_1-2_
  6
CONTINUOUS
 62
    6
 10
229.95190629101677
 20
161.13891682359946
 11
229.95190629101677
 21
148.84086940272451
  0
LINE
  8
_1-2_
  6
CONTINUOUS
 62
    6
 10
229.95190629101677
 20
147.84086940272451
 11
229.95190629101677
 21
136.13891682359946
  0
LINE
  8
_1-2_
  6
CONTINUOUS
 62
    6
 10
230.75190629101678
 20
161.13891682359946
 11
230.75190629101678
 21
148.43696424447441
  0
LINE
  8
_1-2_
  6
CONTINUOUS
 62
    6
 10
230.75190629101678
 20
147.43696424447441
 11
230.75190629101678
 21
136.13891682359946
  0
ARC
  8
_1-2_
  6
CONTINUOUS
 62
    6
 10
229.95044769651605
 20
148.34087153022693
 40
0.5
 50
36.590416662937571
 51
89.832857145111078
  0
ARC
  8
_1-2_
  6
CONTINUOUS
 62
    6
 10
230.7533648855175
 20
148.93696211697198
 40
0.5
 50
216.59041666293757
 51
269.83285714511106
  0
ARC
  8
_1-2_
  6
CONTINUOUS
 62
    6
 10
230.7533648855175
 20
147.93696211697198
 40
0.5
 50
216.59041666293757
 51
269.83285714511106
  0
ARC
  8
_1-2_
  6
CONTINUOUS
 62
    6
 10
229.95044769651605
 20
147.34087153022693
 40
0.5
 50
36.590416662937571
 51
89.832857145111078
  0
TEXT
  8
_1-1_
 62
    7
 10
206.95328980411853
 20
147.8197112004018
 40
3
 41
1
 50
90.000000000000014
  1
300
  0
TEXT
  8
_1-1_
 62
    7
 10
182.65645404319437
 20
168.79030637870417
 40
3
 41
1
 50
0
  1
0.5mm 　赤色
  0
TEXT
  8
_1-1_
 62
    4
 10
191.28286127352089
 20
170.11955318269227
 40
2
 41
1
 50
0
  1
2
  0
LINE
  8
_1-2_
  6
CONTINUOUS
 62
    6
 10
196.8519062910168
 20
116.13891682359946
 11
196.8519062910168
 21
136.13891682359946
  0
LINE
  8
_1-2_
  6
CONTINUOUS
 62
    6
 10
174.8519062910168
 20
120.13891682359946
 11
174.8519062910168
 21
136.13891682359946
  0
LINE
  8
_1-1_
  6
CONTINUOUS
 62
    4
 10
207.8519062910168
 20
136.13891682359946
 11
207.8519062910168
 21
116.13891682359946
  0
LINE
  8
_1-1_
  6
CONTINUOUS
 62
    4
 10
207.8519062910168
 20
200.63891682359946
 11
207.33426820081175
 21
198.70706517102133
  0
LINE
  8
_1-1_
  6
CONTINUOUS
 62
    4
 10
207.8519062910168
 20
200.63891682359946
 11
208.36954438122186
 21
198.70706517102133
  0
LINE
  8
_1-1_
  6
CONTINUOUS
 62
    4
 10
207.8519062910168
 20
200.63891682359946
 11
197.8519062910168
 21
200.63891682359946
  0
LINE
  8
_1-1_
  6
CONTINUOUS
 62
    4
 10
207.8519062910168
 20
191.63891682359946
 11
207.33426820081175
 21
193.57076847617759
  0
LINE
  8
_1-1_
  6
CONTINUOUS
 62
    4
 10
207.8519062910168
 20
191.63891682359946
 11
208.36954438122186
 21
193.57076847617759
  0
LINE
  8
_1-1_
  6
CONTINUOUS
 62
    4
 10
207.8519062910168
 20
191.63891682359946
 11
197.8519062910168
 21
191.63891682359946
  0
LINE
  8
_1-2_
  6
CONTINUOUS
 62
    6
 10
196.8519062910168
 20
200.63891682359946
 11
196.8519062910168
 21
191.63891682359946
  0
LINE
  8
_1-2_
  6
CONTINUOUS
 62
    6
 10
174.8519062910168
 20
200.63891682359946
 11
174.8519062910168
 21
191.63891682359946
  0
LINE
  8
_1-2_
  6
CONTINUOUS
 62
    6
 10
234.8519062910168
 20
116.13891682359946
 11
234.8519062910168
 21
136.13891682359946
  0
LINE
  8
_1-2_
  6
CONTINUOUS
 62
    6
 10
225.8519062910168
 20
116.13891682359946
 11
225.8519062910168
 21
136.13891682359946
  0
LINE
  8
_1-2_
  6
CONTINUOUS
 62
    6
 10
225.8519062910168
 20
116.13891682359946
 11
234.8519062910168
 21
116.13891682359946
  0
LINE
  8
_1-2_
  6
DASHED1
 62
    6
 10
225.8519062910168
 20
120.13891682359946
 11
234.8519062910168
 21
120.13891682359946
  0
LINE
  8
_1-2_
  6
CONTINUOUS
 62
    6
 10
225.8519062910168
 20
136.13891682359946
 11
234.8519062910168
 21
136.13891682359946
  0
LINE
  8
_1-3_ADD_LINE
  6
CENTER1
 62
    7
 10
230.3519062910168
 20
121.7644399799096
 11
230.3519062910168
 21
114.30135610246109
  0
LINE
  8
_1-2_
  6
DASHED1
 62
    6
 10
232.50190629101681
 20
120.13891682359946
 11
232.50190629101681
 21
116.13891682359946
  0
LINE
  8
_1-2_
  6
DASHED1
 62
    6
 10
228.2019062910168
 20
120.13891682359946
 11
228.2019062910168
 21
116.13891682359946
  0
LINE
  8
_1-1_
  6
CONTINUOUS
 62
    4
 10
207.8519062910168
 20
191.63891682359946
 11
207.8519062910168
 21
200.63891682359946
  0
LINE
  8
_1-1_
  6
CONTINUOUS
 62
    4
 10
196.8519062910168
 20
211.63891682359946
 11
174.8519062910168
 21
211.63891682359946
  0
LINE
  8
_1-1_
  6
CONTINUOUS
 62
    4
 10
196.8519062910168
 20
211.63891682359946
 11
194.92005463843867
 21
211.12127873339443
  0
LINE
  8
_1-1_
  6
CONTINUOUS
 62
    4
 10
196.8519062910168
 20
211.63891682359946
 11
194.92005463843867
 21
212.15655491380448
  0
LINE
  8
_1-1_
  6
CONTINUOUS
 62
    4
 10
174.8519062910168
 20
211.63891682359946
 11
176.78375794359494
 21
211.12127873339443
  0
LINE
  8
_1-1_
  6
CONTINUOUS
 62
    4
 10
174.8519062910168
 20
211.63891682359946
 11
176.78375794359494
 21
212.15655491380451
  0
LINE
  8
_1-1_
  6
CONTINUOUS
 62
    4
 10
196.8519062910168
 20
211.63891682359946
 11
196.8519062910168
 21
201.63891682359946
  0
LINE
  8
_1-1_
  6
CONTINUOUS
 62
    4
 10
174.8519062910168
 20
211.63891682359946
 11
174.8519062910168
 21
201.63891682359946
  0
LINE
  8
_1-1_
  6
CONTINUOUS
 62
    4
 10
196.8519062910168
 20
221.63891682359946
 11
194.92005463843867
 21
221.12127873339443
  0
LINE
  8
_1-1_
  6
CONTINUOUS
 62
    4
 10
196.8519062910168
 20
221.63891682359946
 11
194.92005463843867
 21
222.15655491380448
  0
LINE
  8
_1-1_
  6
CONTINUOUS
 62
    4
 10
196.8519062910168
 20
221.63891682359946
 11
196.8519062910168
 21
211.63891682359946
  0
LINE
  8
_1-1_
  6
CONTINUOUS
 62
    4
 10
196.85190582275391
 20
231.63891682359946
 11
194.92005417017577
 21
231.12127873339443
  0
LINE
  8
_1-1_
  6
CONTINUOUS
 62
    4
 10
196.85190582275391
 20
231.63891682359946
 11
194.92005417017577
 21
232.15655491380448
  0
LINE
  8
_1-1_
  6
CONTINUOUS
 62
    4
 10
196.85190582275391
 20
231.63891682359946
 11
196.85190582275391
 21
221.63891682359946
  0
CIRCLE
  8
_1-2_
  6
CONTINUOUS
 62
    6
 10
176.3519062910168
 20
196.13891682359946
 40
0.4
  0
CIRCLE
  8
_1-2_
  6
CONTINUOUS
 62
    6
 10
195.3519062910168
 20
196.13891682359946
 40
0.4
  0
TEXT
  8
_1-1_
 62
    7
 10
184.2269062910168
 20
212.13891682359946
 40
3
 41
1
 50
0
  1
22
  0
LINE
  8
_1-2_
  6
CONTINUOUS
 62
    6
 10
162.8519062910168
 20
116.13891682359946
 11
162.8519062910168
 21
120.13891682359946
  0
ARC
  8
_1-2_
  6
CONTINUOUS
 62
    6
 10
167.3519062910168
 20
196.13891682359946
 40
4.5
 50
90
 51
270
  0
CIRCLE
  8
_1-2_
  6
CONTINUOUS
 62
    6
 10
167.8519062910168
 20
196.13891682359946
 40
2.1499999999999999
  0
LINE
  8
_1-2_
  6
DASHED1
 62
    6
 10
165.7019062910168
 20
120.13891682359946
 11
165.7019062910168
 21
116.13891682359946
  0
LINE
  8
_1-2_
  6
DASHED1
 62
    6
 10
170.00190629101681
 20
120.13891682359946
 11
170.00190629101681
 21
116.13891682359946
  0
LINE
  8
_1-1_
  6
CONTINUOUS
 62
    4
 10
167.8519062910168
 20
221.63891682359946
 11
169.78375794359494
 21
221.12127873339443
  0
LINE
  8
_1-1_
  6
CONTINUOUS
 62
    4
 10
167.8519062910168
 20
221.63891682359946
 11
169.78375794359494
 21
222.15655491380448
  0
LINE
  8
_1-1_
  6
CONTINUOUS
 62
    4
 10
162.8519062910168
 20
231.63891682359946
 11
164.78375794359496
 21
231.12127873339443
  0
LINE
  8
_1-1_
  6
CONTINUOUS
 62
    4
 10
162.8519062910168
 20
231.63891682359946
 11
164.78375794359496
 21
232.15655491380448
  0
LINE
  8
_1-1_
  6
CONTINUOUS
 62
    4
 10
167.8519062910168
 20
221.63891682359946
 11
167.8519062910168
 21
201.63891682359946
  0
LINE
  8
_1-1_
  6
CONTINUOUS
 62
    4
 10
162.8519062910168
 20
231.63891682359946
 11
162.8519062910168
 21
201.63891682359946
  0
LINE
  8
_1-3_ADD_LINE
  6
CENTER1
 62
    7
 10
164.30394371356186
 20
196.13891682359946
 11
171.62679710631545
 21
196.13891682359946
  0
LINE
  8
_1-3_ADD_LINE
  6
CENTER1
 62
    7
 10
167.8519062910168
 20
192.76531546656085
 11
167.8519062910168
 21
199.4420347364244
  0
LINE
  8
_1-3_ADD_LINE
  6
CENTER1
 62
    7
 10
167.8519062910168
 20
121.95052737317931
 11
167.8519062910168
 21
114.66373681567052
  0
LINE
  8
_1-1_
  6
CONTINUOUS
 62
    4
 10
196.8519062910168
 20
221.63891682359946
 11
167.8519062910168
 21
221.63891682359946
  0
LINE
  8
_1-2_
  6
CONTINUOUS
 62
    6
 10
167.3519062910168
 20
200.63891682359946
 11
196.8519062910168
 21
200.63891682359946
  0
LINE
  8
_1-2_
  6
CONTINUOUS
 62
    6
 10
167.3519062910168
 20
191.63891682359946
 11
196.8519062910168
 21
191.63891682359946
  0
LINE
  8
_1-1_
  6
CONTINUOUS
 62
    4
 10
196.85190582275391
 20
231.63891682359946
 11
162.8519062910168
 21
231.63891682359946
  0
TEXT
  8
_1-1_
 62
    7
 10
178.72690605688535
 20
232.13891682359946
 40
3
 41
1
 50
0
  1
34
  0
TEXT
  8
_1-1_
 62
    7
 10
181.2269062910168
 20
222.13891682359946
 40
3
 41
1
 50
0
  1
29
  0
LINE
  8
_1-2_
  6
CONTINUOUS
 62
    6
 10
162.8519062910168
 20
120.13891682359946
 11
174.8519062910168
 21
120.13891682359946
  0
LINE
  8
_1-2_
  6
CONTINUOUS
 62
    6
 10
162.8519062910168
 20
116.13891682359946
 11
196.8519062910168
 21
116.13891682359946
  0
TEXT
  8
_1-1_
 62
    7
 10
207.3519062910168
 20
124.08645153189352
 40
3
 41
1
 50
90
  1
20
  0
TEXT
  8
_1-1_
 62
    7
 10
207.3519062910168
 20
195.38891682359946
 40
3
 41
1
 50
90
  1
9
  0
LINE
  8
_1-1_
  6
CONTINUOUS
 62
    4
 10
207.8519062910168
 20
116.13891682359946
 11
207.33426820081172
 21
118.07076847617759
  0
LINE
  8
_1-1_
  6
CONTINUOUS
 62
    4
 10
207.8519062910168
 20
116.13891682359946
 11
208.36954438122183
 21
118.07076847617759
  0
LINE
  8
_1-1_
  6
CONTINUOUS
 62
    4
 10
207.8519062910168
 20
116.13891682359946
 11
197.8519062910168
 21
116.13891682359946
  0
TEXT
  8
_0-1_
 62
    7
 10
119.50276243093923
 20
14.378453038674053
 40
4
 41
1
 50
0
  1
スパークケンチャー
  0
TEXT
  8
_0-1_
 62
    7
 10
183.54696132596686
 20
14.842541436464103
 40
4
 41
1
 50
0
  1
SQ11150BF
  0
TEXT
  8
_0-1_
 62
    7
 10
114.39779005524862
 20
32.013812154696154
 40
4
 41
1
 50
0
  1
同一形状品：SQ11150BF,SQ12150BF,SQ13150BF,SQ21150BF,SQ22150BF,SQ23150BF
  0
LINE
  8
_1-2_
  6
DASHED1
 62
    4
 10
192.8519062910168
 20
127.13891682359946
 11
192.8519062910168
 21
131.13891682359946
  0
LINE
  8
_1-2_
  6
DASHED1
 62
    4
 10
178.8519062910168
 20
127.13891682359946
 11
178.8519062910168
 21
131.13891682359946
  0
LINE
  8
_1-2_
  6
DASHED1
 62
    4
 10
178.8519062910168
 20
127.13891682359946
 11
192.8519062910168
 21
127.13891682359946
  0
LINE
  8
_1-2_
  6
DASHED1
 62
    4
 10
178.8519062910168
 20
131.13891682359946
 11
192.8519062910168
 21
131.13891682359946
  0
LINE
  8
_1-2_
  6
CONTINUOUS
 62
    6
 10
175.8519062910168
 20
199.63891682359946
 11
195.8519062910168
 21
199.63891682359946
  0
LINE
  8
_1-2_
  6
CONTINUOUS
 62
    6
 10
195.8519062910168
 20
199.63891682359946
 11
195.8519062910168
 21
192.63891682359946
  0
LINE
  8
_1-2_
  6
CONTINUOUS
 62
    6
 10
175.8519062910168
 20
192.63891682359946
 11
195.8519062910168
 21
192.63891682359946
  0
LINE
  8
_1-2_
  6
CONTINUOUS
 62
    6
 10
175.8519062910168
 20
199.63891682359946
 11
175.8519062910168
 21
192.63891682359946
  0
TEXT
  8
_1-2_
 62
    7
 10
183.08539794267574
 20
127.87376069283422
 40
2.5
 41
1
 50
0
  1
型式
  0
LINE
  8
_1-1_
  6
CONTINUOUS
 62
    4
 10
151.8519062910168
 20
120.13891682359946
 11
151.8519062910168
 21
116.13891682359946
  0
LINE
  8
_1-1_
  6
CONTINUOUS
 62
    4
 10
151.8519062910168
 20
120.13891682359946
 11
161.8519062910168
 21
120.13891682359946
  0
LINE
  8
_1-1_
  6
CONTINUOUS
 62
    4
 10
151.8519062910168
 20
116.13891682359946
 11
161.8519062910168
 21
116.13891682359946
  0
TEXT
  8
_1-1_
 62
    7
 10
151.3519062910168
 20
117.38891682359946
 40
3
 41
1
 50
90
  1
4
  0
LINE
  8
_1-1_
  6
CONTINUOUS
 62
    4
 10
151.8519062910168
 20
120.13891682359946
 11
151.44339429894251
 21
118.614329313677
  0
LINE
  8
_1-1_
  6
CONTINUOUS
 62
    4
 10
151.8519062910168
 20
120.13891682359946
 11
152.25337554678714
 21
118.64061316338774
  0
LINE
  8
_1-1_
  6
CONTINUOUS
 62
    4
 10
151.8519062910168
 20
116.13891682359946
 11
151.4333595973759
 21
117.70095434960724
  0
LINE
  8
_1-1_
  6
CONTINUOUS
 62
    4
 10
151.8519062910168
 20
116.13891682359946
 11
152.26702359583101
 21
117.68815569626717
  0
ENDSEC
  0
EOF
