  0
SECTION
  2
HEADER
  9
$ACADVER
  1
AC1009
  9
$INSBASE
 10
0
 20
0
 30
0
  9
$EXTMIN
 10
0
 20
0
  9
$EXTMAX
 10
420
 20
297
  9
$LIMMIN
 10
0
 20
0
  9
$LIMMAX
 10
420
 20
297
  9
$LTSCALE
 40
1
  0
ENDSEC
  0
SECTION
  2
TABLES
  0
TABLE
  2
LTYPE
 70
     9
  0
LTYPE
  2
CONTINUOUS
 70
    64
  3
実線
 72
    65
 73
     0
 40
0.0
  0
LTYPE
  2
DASHED1
 70
    64
  3
--  --  --  --  --  --  --  --  
 72
    65
 73
     2
 40
2.5
 49
1.25
 49
-1.25
  0
LTYPE
  2
DASHED2
 70
    64
  3
----    ----    ----    ----    
 72
    65
 73
     2
 40
5.0
 49
2.5
 49
-2.5
  0
LTYPE
  2
DASHED3
 70
    64
  3
------  ------  ------  ------  
 72
    65
 73
     2
 40
5.0
 49
3.75
 49
-1.25
  0
LTYPE
  2
CENTER1
 70
    64
  3
----- - ----- - ----- - ----- - 
 72
    65
 73
     4
 40
10.0
 49
6.25
 49
-1.25
 49
1.25
 49
-1.25
  0
LTYPE
  2
CENTER2
 70
    64
  3
----------  --  ----------  --  
 72
    65
 73
     4
 40
20.0
 49
12.5
 49
-2.5
 49
2.5
 49
-2.5
  0
LTYPE
  2
PHANTOM1
 70
    64
  3
--- - - --- - - --- - - --- - - 
 72
    65
 73
     6
 40
10.0
 49
3.25
 49
-1.25
 49
1.25
 49
-1.25
 49
1.25
 49
-1.25
  0
LTYPE
  2
PHANTOM2
 70
    64
  3
--------  -  -  --------  -  -  
 72
    65
 73
     6
 40
20.0
 49
10.0
 49
-2.5
 49
1.25
 49
-2.5
 49
1.25
 49
-2.5
  0
LTYPE
  2
DOT
 70
    64
  3
-   -   -   -   -   -   -   -   
 72
    65
 73
     2
 40
2.5
 49
0.625
 49
-1.875
  0
LTYPE
  2
DUMMY
 70
    64
  3
ダミー
 72
    65
 73
     0
 40
0.0
  0
LTYPE
  2
RAND1
 70
    64
  3
ランダム線1
 72
    65
 73
     4
 40
10.0
 49
1.0
 49
-2.0
 49
3.0
 49
-4.0
  0
LTYPE
  2
RAND2
 70
    64
  3
ランダム線2
 72
    65
 73
     4
 40
14.0
 49
2.0
 49
-3.0
 49
4.0
 49
-5.0
  0
LTYPE
  2
RAND3
 70
    64
  3
ランダム線3
 72
    65
 73
     4
 40
18.0
 49
3.0
 49
-4.0
 49
5.0
 49
-6.0
  0
LTYPE
  2
RAND4
 70
    64
  3
ランダム線4
 72
    65
 73
     4
 40
22.0
 49
4.0
 49
-5.0
 49
6.0
 49
-7.0
  0
LTYPE
  2
RAND5
 70
    64
  3
ランダム線5
 72
    65
 73
     4
 40
26.0
 49
5.0
 49
-6.0
 49
7.0
 49
-8.0
  0
LTYPE
  2
LONG1
 70
    64
  3
----------  --  ----------  --  
 72
    65
 73
     4
 40
40.0
 49
32.5
 49
-2.5
 49
2.5
 49
-2.5
  0
LTYPE
  2
LONG2
 70
    64
  3
--------  -  -  --------  -  -  
 72
    65
 73
     6
 40
40.0
 49
30.0
 49
-2.5
 49
1.25
 49
-2.5
 49
1.25
 49
-2.5
  0
LTYPE
  2
LONG3
 70
    64
  3
+++++++++++++++..+++++++++++++++
 72
    65
 73
     2
 40
40.0
 49
37.5
 49
-2.5
  0
LTYPE
  2
LONG4
 70
    64
  3
+++++++++++++++..+++++++++++++++
 72
    65
 73
     2
 40
80.0
 49
75.0
 49
-5.0
  0
LTYPE
  2
LONG5
 70
    64
  3
----------  --  ----------  --  
 72
    65
 73
     4
 40
60.0
 49
37.5
 49
-7.5
 49
7.5
 49
-7.5
  0
LTYPE
  2
dashed
 70
   64
  3
-------   -------------   ------
 72
   65
 73
    2
 40
7.5
 49
6
 49
-1.5
  0
LTYPE
  2
dashed_spaced
 70
   64
  3
----        --------        ----
 72
   65
 73
    2
 40
12
 49
6
 49
-6
  0
LTYPE
  2
long_dashed_dotted
 70
   64
  3
------------- --- --------------
 72
   65
 73
    4
 40
15.25
 49
12
 49
-1.5
 49
0.25
 49
-1.5
  0
LTYPE
  2
long_dashed_double-dotted
 70
   64
  3
----------- --- --- ------------
 72
   65
 73
    6
 40
17
 49
12
 49
-1.5
 49
0.25
 49
-1.5
 49
0.25
 49
-1.5
  0
LTYPE
  2
long_dashed_triplicate-dotted
 70
   64
  3
--------- --- --- --- ----------
 72
   65
 73
    8
 40
18.75
 49
12
 49
-1.5
 49
0.25
 49
-1.5
 49
0.25
 49
-1.5
 49
0.25
 49
-1.5
  0
LTYPE
  2
dotted
 70
   64
  3
   -       -       -       -    
 72
   65
 73
    2
 40
1.75
 49
0.25
 49
-1.5
  0
LTYPE
  2
chain
 70
   64
  3
-------------- -- --------------
 72
   65
 73
    4
 40
18.5
 49
12
 49
-1.5
 49
3.5
 49
-1.5
  0
LTYPE
  2
chain_double_dash
 70
   64
  3
------------ -- -- -------------
 72
   65
 73
    6
 40
23.5
 49
12
 49
-1.5
 49
3.5
 49
-1.5
 49
3.5
 49
-1.5
  0
LTYPE
  2
dashed_dotted
 70
   64
  3
-----------     -     ----------
 72
   65
 73
    4
 40
9.25
 49
6
 49
-1.5
 49
0.25
 49
-1.5
  0
LTYPE
  2
double-dashed_dotted
 70
   64
  3
------   -----------   -   -----
 72
   65
 73
    6
 40
16.75
 49
6
 49
-1.5
 49
6
 49
-1.5
 49
0.25
 49
-1.5
  0
LTYPE
  2
dashed_double-dotted
 70
   64
  3
---------    -    -    ---------
 72
   65
 73
    6
 40
11
 49
6
 49
-1.5
 49
0.25
 49
-1.5
 49
0.25
 49
-1.5
  0
LTYPE
  2
double-dashed_double-dotted
 70
   64
  3
-----   ---------   -   -   ----
 72
   65
 73
    8
 40
18.5
 49
6
 49
-1.5
 49
6
 49
-1.5
 49
0.25
 49
-1.5
 49
0.25
 49
-1.5
  0
LTYPE
  2
dashed_triplicate-dotted
 70
   64
  3
-------    -    -    -    ------
 72
   65
 73
    8
 40
12.75
 49
6
 49
-1.5
 49
0.25
 49
-1.5
 49
0.25
 49
-1.5
 49
0.25
 49
-1.5
  0
LTYPE
  2
double-dashed_triplicate-dotted
 70
   64
  3
-----  ---------  -  -  -  -----
 72
   65
 73
   10
 40
20.25
 49
6
 49
-1.5
 49
6
 49
-1.5
 49
0.25
 49
-1.5
 49
0.25
 49
-1.5
 49
0.25
 49
-1.5
  0
LTYPE
  2
undefined
 70
   64
  3
--------------------------------
 72
   65
 73
    0
 40
0
  0
ENDTAB
  0
TABLE
  2
STYLE
  5
3
100
AcDbSymbolTable
 70
     1
  0
STYLE
  5
10
100
AcDbSymbolTableRecord
100
AcDbTextStyleTableRecord
  2
STANDARD
 70
     0
 40
0.0
 41
1.0
 50
0.0
 71
     0
 42
0.2
  3
txt
  4
bigfont.shx
  0
STYLE
  5
26
100
AcDbSymbolTableRecord
100
AcDbTextStyleTableRecord
  2
TATEGAKI
 70
    68
 40
0.0
 41
1.0
 50
0.0
 71
     0
 42
1.0
  3
txt
  4
bigfont.shx
  0
ENDTAB
  0
TABLE
  2
LAYER
 70
    5
  0
LAYER
  2
_0-1_
 70
   64
 62
    7
  6
CONTINUOUS
  0
LAYER
  2
_1-1_
 70
   64
 62
    7
  6
CONTINUOUS
  0
LAYER
  2
_1-2_
 70
   64
 62
    7
  6
CONTINUOUS
  0
LAYER
  2
_1-3_ADD_LINE
 70
   64
 62
    7
  6
CONTINUOUS
  0
LAYER
  2
ADD_LINE
 70
   64
 62
    7
  6
CONTINUOUS
  0
ENDTAB
  0
ENDSEC
  0
SECTION
  2
BLOCKS
  0
ENDSEC
  0
SECTION
  2
ENTITIES
  0
LINE
  8
_1-2_
  6
CONTINUOUS
 62
    6
 10
175.8519062910168
 20
203.13891682359946
 11
182.74229726462312
 21
211.65493186786509
  0
LINE
  8
_0-1_
  6
CONTINUOUS
 62
    3
 10
109.91378294262526
 20
10.082039243805809
 11
109.59104797587588
 21
10.082039243805809
  0
LINE
  8
_0-1_
  6
CONTINUOUS
 62
    3
 10
109.59104797587588
 20
10.082039243805809
 11
109.59104797587588
 21
280.35561316697232
  0
LINE
  8
_0-1_
  6
CONTINUOUS
 62
    3
 10
289.74820746365236
 20
280.35561316697232
 11
289.74820746365236
 21
10.082039243805809
  0
LINE
  8
_0-1_
  6
CONTINUOUS
 62
    3
 10
109.59104797587588
 20
280.35561316697232
 11
289.74820746365236
 21
280.35561316697232
  0
LINE
  8
_0-1_
  6
CONTINUOUS
 62
    3
 10
289.74820746365236
 20
10.082039243805809
 11
109.59104797587588
 21
10.082039243805809
  0
LINE
  8
_0-1_
  6
CONTINUOUS
 62
    3
 10
289.74820746365236
 20
25.082039243805809
 11
109.59104797587588
 21
25.082039243805809
  0
LINE
  8
_0-1_
  6
CONTINUOUS
 62
    3
 10
169.59104797587588
 20
10.082039243805809
 11
169.59104797587588
 21
25.082039243805809
  0
LINE
  8
_0-1_
  6
CONTINUOUS
 62
    3
 10
229.59104797587588
 20
10.082039243805809
 11
229.59104797587588
 21
25.082039243805809
  0
TEXT
  8
_0-1_
 62
    7
 10
111.53633893959282
 20
21.577207655443985
 40
2
 41
1
 50
0
  1
ＴＩＴＬＥ
  0
TEXT
  8
_0-1_
 62
    7
 10
171.46168920362626
 20
21.325420469460653
 40
2
 41
1
 50
0
  1
ＭＯＤＥＬ
  0
TEXT
  8
_0-1_
 62
    7
 10
236.24586551082081
 20
15.198940813772481
 40
4
 41
1
 50
0
  1
日伸制御機工株式会社
  0
LINE
  8
_1-2_
  6
CONTINUOUS
 62
    6
 10
229.95190629101677
 20
161.13891682359946
 11
229.95190629101677
 21
148.84086940272451
  0
LINE
  8
_1-2_
  6
CONTINUOUS
 62
    6
 10
229.95190629101677
 20
147.84086940272451
 11
229.95190629101677
 21
136.13891682359946
  0
LINE
  8
_1-2_
  6
CONTINUOUS
 62
    6
 10
230.75190629101678
 20
161.13891682359946
 11
230.75190629101678
 21
148.43696424447441
  0
LINE
  8
_1-2_
  6
CONTINUOUS
 62
    6
 10
230.75190629101678
 20
147.43696424447441
 11
230.75190629101678
 21
136.13891682359946
  0
ARC
  8
_1-2_
  6
CONTINUOUS
 62
    6
 10
229.95044769651605
 20
148.34087153022693
 40
0.5
 50
36.590416662937571
 51
89.832857145111078
  0
ARC
  8
_1-2_
  6
CONTINUOUS
 62
    6
 10
230.7533648855175
 20
148.93696211697198
 40
0.5
 50
216.59041666293757
 51
269.83285714511106
  0
ARC
  8
_1-2_
  6
CONTINUOUS
 62
    6
 10
230.7533648855175
 20
147.93696211697198
 40
0.5
 50
216.59041666293757
 51
269.83285714511106
  0
ARC
  8
_1-2_
  6
CONTINUOUS
 62
    6
 10
229.95044769651605
 20
147.34087153022693
 40
0.5
 50
36.590416662937571
 51
89.832857145111078
  0
TEXT
  8
_0-1_
 62
    7
 10
119.50276243093923
 20
14.378453038674053
 40
4
 41
1
 50
0
  1
スパークケンチャー
  0
TEXT
  8
_0-1_
 62
    7
 10
183.54696132596683
 20
14.842541436464103
 40
4
 41
1
 50
0
  1
SQT11150BF
  0
TEXT
  8
_0-1_
 62
    7
 10
114.39779005524862
 20
32.01381215469614
 40
4
 41
1
 50
0
  1
同一形状品：SQT11150BF,SQT12150BF,SQT13150BF,SQT21150BF,SQT22150BF,SQT23150BF
  0
LINE
  8
_1-2_
  6
CONTINUOUS
 62
    6
 10
169.3519062910168
 20
113.13891682359946
 11
202.3519062910168
 21
113.13891682359946
  0
LINE
  8
_1-2_
  6
CONTINUOUS
 62
    6
 10
202.3519062910168
 20
136.13891682359946
 11
202.3519062910168
 21
113.13891682359946
  0
LINE
  8
_1-2_
  6
CONTINUOUS
 62
    6
 10
169.3519062910168
 20
136.13891682359946
 11
169.3519062910168
 21
113.13891682359946
  0
LINE
  8
_1-2_
  6
CONTINUOUS
 62
    6
 10
169.3519062910168
 20
203.13891682359946
 11
202.3519062910168
 21
203.13891682359946
  0
LINE
  8
_1-2_
  6
CONTINUOUS
 62
    6
 10
170.3519062910168
 20
202.13891682359946
 11
201.3519062910168
 21
202.13891682359946
  0
LINE
  8
_1-2_
  6
CONTINUOUS
 62
    6
 10
170.4519062910168
 20
161.13891682359946
 11
170.4519062910168
 21
148.84086940272451
  0
LINE
  8
_1-2_
  6
CONTINUOUS
 62
    6
 10
170.4519062910168
 20
147.84086940272451
 11
170.4519062910168
 21
136.13891682359946
  0
LINE
  8
_1-2_
  6
CONTINUOUS
 62
    6
 10
171.25190629101681
 20
161.13891682359946
 11
171.25190629101681
 21
148.43696424447441
  0
LINE
  8
_1-2_
  6
CONTINUOUS
 62
    6
 10
171.25190629101681
 20
147.43696424447441
 11
171.25190629101681
 21
136.13891682359946
  0
ARC
  8
_1-2_
  6
CONTINUOUS
 62
    6
 10
170.45044769651608
 20
148.34087153022693
 40
0.5
 50
36.590416662937571
 51
89.832857145111078
  0
ARC
  8
_1-2_
  6
CONTINUOUS
 62
    6
 10
171.25336488551753
 20
148.93696211697198
 40
0.5
 50
216.59041666293757
 51
269.83285714511106
  0
ARC
  8
_1-2_
  6
CONTINUOUS
 62
    6
 10
171.25336488551753
 20
147.93696211697198
 40
0.5
 50
216.59041666293757
 51
269.83285714511106
  0
ARC
  8
_1-2_
  6
CONTINUOUS
 62
    6
 10
170.45044769651608
 20
147.34087153022693
 40
0.5
 50
36.590416662937571
 51
89.832857145111078
  0
LINE
  8
_1-2_
  6
CONTINUOUS
 62
    6
 10
200.4519062910168
 20
161.13891682359946
 11
200.4519062910168
 21
148.84086940272451
  0
LINE
  8
_1-2_
  6
CONTINUOUS
 62
    6
 10
200.4519062910168
 20
147.84086940272451
 11
200.4519062910168
 21
136.13891682359946
  0
LINE
  8
_1-2_
  6
CONTINUOUS
 62
    6
 10
201.25190629101681
 20
161.13891682359946
 11
201.25190629101681
 21
148.43696424447441
  0
LINE
  8
_1-2_
  6
CONTINUOUS
 62
    6
 10
201.25190629101681
 20
147.43696424447441
 11
201.25190629101681
 21
136.13891682359946
  0
ARC
  8
_1-2_
  6
CONTINUOUS
 62
    6
 10
200.45044769651608
 20
148.34087153022693
 40
0.5
 50
36.590416662937571
 51
89.832857145111078
  0
ARC
  8
_1-2_
  6
CONTINUOUS
 62
    6
 10
201.25336488551753
 20
148.93696211697198
 40
0.5
 50
216.59041666293757
 51
269.83285714511106
  0
ARC
  8
_1-2_
  6
CONTINUOUS
 62
    6
 10
201.25336488551753
 20
147.93696211697198
 40
0.5
 50
216.59041666293757
 51
269.83285714511106
  0
ARC
  8
_1-2_
  6
CONTINUOUS
 62
    6
 10
200.45044769651608
 20
147.34087153022693
 40
0.5
 50
36.590416662937571
 51
89.832857145111078
  0
LINE
  8
_1-2_
  6
CONTINUOUS
 62
    6
 10
195.8519062910168
 20
203.13891682359946
 11
188.96151531750562
 21
211.65493186774751
  0
CIRCLE
  8
_1-2_
  6
CONTINUOUS
 62
    6
 10
185.8519062910168
 20
209.13891682359946
 40
2.1499999999999999
  0
ARC
  8
_1-2_
  6
CONTINUOUS
 62
    6
 10
185.8519062910168
 20
209.13891682359946
 40
4
 50
38.976660018723877
 51
141.02333998127617
  0
LINE
  8
_1-3_ADD_LINE
  6
CENTER1
 62
    7
 10
182.69537628015169
 20
209.13891682359946
 11
188.89027618255025
 21
209.13891682359946
  0
LINE
  8
_1-2_
  6
CONTINUOUS
 62
    6
 10
222.8519062910168
 20
136.13891682359946
 11
237.8519062910168
 21
136.13891682359946
  0
LINE
  8
_1-2_
  6
CONTINUOUS
 62
    6
 10
237.8519062910168
 20
136.13891682359946
 11
237.8519062910168
 21
113.13891682359946
  0
LINE
  8
_1-2_
  6
CONTINUOUS
 62
    6
 10
222.8519062910168
 20
136.13891682359946
 11
222.8519062910168
 21
113.13891682359946
  0
LINE
  8
_1-2_
  6
CONTINUOUS
 62
    6
 10
222.8519062910168
 20
113.13891682359946
 11
247.8519062910168
 21
113.13891682359946
  0
LINE
  8
_1-2_
  6
CONTINUOUS
 62
    6
 10
247.8519062910168
 20
117.13891682359946
 11
247.8519062910168
 21
113.13891682359946
  0
LINE
  8
_1-2_
  6
CONTINUOUS
 62
    6
 10
237.8519062910168
 20
117.13891682359946
 11
247.8519062910168
 21
117.13891682359946
  0
LINE
  8
_1-3_ADD_LINE
  6
CENTER1
 62
    7
 10
243.8519062910168
 20
118.52260170768459
 11
243.8519062910168
 21
112.01330989452536
  0
LINE
  8
_1-2_
  6
DASHED1
 62
    6
 10
246.00190629101681
 20
117.13891682359946
 11
246.00190629101681
 21
113.13891682359946
  0
LINE
  8
_1-2_
  6
DASHED1
 62
    6
 10
241.7019062910168
 20
117.13891682359946
 11
241.7019062910168
 21
113.13891682359946
  0
LINE
  8
_1-2_
  6
DASHED1
 62
    4
 10
192.8519062910168
 20
125.13891682359946
 11
192.8519062910168
 21
129.13891682359946
  0
LINE
  8
_1-2_
  6
DASHED1
 62
    4
 10
178.8519062910168
 20
125.13891682359946
 11
178.8519062910168
 21
129.13891682359946
  0
LINE
  8
_1-2_
  6
DASHED1
 62
    4
 10
178.8519062910168
 20
125.13891682359946
 11
192.8519062910168
 21
125.13891682359946
  0
LINE
  8
_1-2_
  6
DASHED1
 62
    4
 10
178.8519062910168
 20
129.13891682359946
 11
192.8519062910168
 21
129.13891682359946
  0
LINE
  8
_1-1_
  6
CONTINUOUS
 62
    4
 10
175.99464122667001
 20
167.6240582621798
 11
206.70584162847814
 21
167.6240582621798
  0
LINE
  8
_1-1_
  6
CONTINUOUS
 62
    4
 10
171.31788172049443
 20
158.11439599745819
 11
175.99464122667001
 21
167.6240582621798
  0
LINE
  8
_1-1_
  6
CONTINUOUS
 62
    4
 10
171.31788172049443
 20
158.11439599745819
 11
171.70592277354945
 21
160.07639093658111
  0
LINE
  8
_1-1_
  6
CONTINUOUS
 62
    4
 10
171.31788172049443
 20
158.11439599745819
 11
172.63493259971278
 21
159.61951293030765
  0
TEXT
  8
_1-1_
 62
    7
 10
177.16088934319436
 20
168.79030637870417
 40
3
 41
1
 50
0
  1
UL1015 AWG20
  0
TEXT
  8
_1-1_
 62
    7
 10
176.96651465710698
 20
172.67780010045203
 40
3
 41
1
 50
0
  1
耐熱ビニール電線(赤)
  0
LINE
  8
_1-1_
  6
CONTINUOUS
 62
    4
 10
213.3519062910168
 20
113.13891682359946
 11
213.3519062910168
 21
136.13891682359946
  0
LINE
  8
_1-1_
  6
CONTINUOUS
 62
    4
 10
213.3519062910168
 20
113.13891682359946
 11
212.83426820081175
 21
115.07076847617759
  0
LINE
  8
_1-1_
  6
CONTINUOUS
 62
    4
 10
213.3519062910168
 20
113.13891682359946
 11
213.86954438122186
 21
115.07076847617759
  0
LINE
  8
_1-1_
  6
CONTINUOUS
 62
    4
 10
213.3519062910168
 20
136.13891682359946
 11
212.83426820081175
 21
134.20706517102133
  0
LINE
  8
_1-1_
  6
CONTINUOUS
 62
    4
 10
213.3519062910168
 20
136.13891682359946
 11
213.86954438122186
 21
134.20706517102133
  0
LINE
  8
_1-1_
  6
CONTINUOUS
 62
    4
 10
213.3519062910168
 20
113.13891682359946
 11
203.3519062910168
 21
113.13891682359946
  0
LINE
  8
_1-1_
  6
CONTINUOUS
 62
    4
 10
213.3519062910168
 20
136.13891682359946
 11
203.3519062910168
 21
136.13891682359946
  0
TEXT
  8
_1-1_
 62
    7
 10
212.8519062910168
 20
123.01391682359946
 40
3
 41
1
 50
90
  1
23
  0
LINE
  8
_1-1_
  6
CONTINUOUS
 62
    4
 10
213.3519062910168
 20
136.13891682359946
 11
213.3519062910168
 21
161.13891682359946
  0
LINE
  8
_1-1_
  6
CONTINUOUS
 62
    4
 10
213.3519062910168
 20
136.13891682359946
 11
212.83426820081175
 21
138.07076847617759
  0
LINE
  8
_1-1_
  6
CONTINUOUS
 62
    4
 10
213.3519062910168
 20
136.13891682359946
 11
213.86954438122186
 21
138.07076847617759
  0
LINE
  8
_1-1_
  6
CONTINUOUS
 62
    4
 10
213.3519062910168
 20
161.13891682359946
 11
212.83426820081178
 21
159.20706517102133
  0
LINE
  8
_1-1_
  6
CONTINUOUS
 62
    4
 10
213.3519062910168
 20
161.13891682359946
 11
213.86954438122186
 21
159.20706517102133
  0
LINE
  8
_1-1_
  6
CONTINUOUS
 62
    4
 10
213.3519062910168
 20
161.13891682359946
 11
203.3519062910168
 21
161.13891682359946
  0
LINE
  8
_1-1_
  6
CONTINUOUS
 62
    4
 10
213.3519062910168
 20
203.13891682359946
 11
212.83426820081178
 21
201.20706517102133
  0
LINE
  8
_1-1_
  6
CONTINUOUS
 62
    4
 10
213.3519062910168
 20
203.13891682359946
 11
213.86954438122186
 21
201.20706517102133
  0
LINE
  8
_1-1_
  6
CONTINUOUS
 62
    4
 10
213.3519062910168
 20
203.13891682359946
 11
203.3519062910168
 21
203.13891682359946
  0
LINE
  8
_1-3_ADD_LINE
  6
CENTER1
 62
    7
 10
185.8519062910168
 20
214.38549134086816
 11
185.8519062910168
 21
206.12994088667713
  0
LINE
  8
_1-1_
  6
CONTINUOUS
 62
    4
 10
213.3519062910168
 20
203.13891682359946
 11
213.3519062910168
 21
213.13891682359946
  0
LINE
  8
_1-1_
  6
CONTINUOUS
 62
    4
 10
213.3519062910168
 20
203.13891682359946
 11
212.83426820081175
 21
205.07076847617759
  0
LINE
  8
_1-1_
  6
CONTINUOUS
 62
    4
 10
213.3519062910168
 20
203.13891682359946
 11
213.86954438122186
 21
205.07076847617759
  0
LINE
  8
_1-1_
  6
CONTINUOUS
 62
    4
 10
213.3519062910168
 20
213.13891682359946
 11
212.83426820081175
 21
211.20706517102133
  0
LINE
  8
_1-1_
  6
CONTINUOUS
 62
    4
 10
213.3519062910168
 20
213.13891682359946
 11
213.86954438122186
 21
211.20706517102133
  0
LINE
  8
_1-1_
  6
CONTINUOUS
 62
    4
 10
213.3519062910168
 20
203.13891682359946
 11
203.3519062910168
 21
203.13891682359946
  0
TEXT
  8
_1-1_
 62
    7
 10
212.8519062910168
 20
206.51391682359946
 40
3
 41
1
 50
90
  1
10
  0
LINE
  8
_1-1_
  6
CONTINUOUS
 62
    4
 10
205.52283091591721
 20
203.13891682359946
 11
205.52283091591721
 21
209.13891682359946
  0
LINE
  8
_1-1_
  6
CONTINUOUS
 62
    4
 10
205.52283091591721
 20
203.13891682359946
 11
205.00519282571216
 21
205.07076847617759
  0
LINE
  8
_1-1_
  6
CONTINUOUS
 62
    4
 10
205.52283091591721
 20
203.13891682359946
 11
206.04046900612224
 21
205.07076847617759
  0
LINE
  8
_1-1_
  6
CONTINUOUS
 62
    4
 10
205.52283091591721
 20
209.13891682359946
 11
205.00519282571216
 21
207.20706517102133
  0
LINE
  8
_1-1_
  6
CONTINUOUS
 62
    4
 10
205.52283091591721
 20
209.13891682359946
 11
206.04046900612224
 21
207.20706517102133
  0
TEXT
  8
_1-1_
 62
    7
 10
205.02283091591721
 20
205.38891682359946
 40
3
 41
1
 50
90
  1
6
  0
LINE
  8
_1-1_
  6
CONTINUOUS
 62
    4
 10
205.52283091591721
 20
203.13891682359946
 11
203.3519062910168
 21
203.13891682359946
  0
LINE
  8
_1-1_
  6
CONTINUOUS
 62
    4
 10
205.52283091591721
 20
209.13891682359946
 11
192.02516989435887
 21
209.13891682359946
  0
LINE
  8
_1-1_
  6
CONTINUOUS
 62
    4
 10
213.3519062910168
 20
213.13891682359946
 11
188.58012020945083
 21
213.13891682359946
  0
LINE
  8
_1-1_
  6
CONTINUOUS
 62
    4
 10
195.8519062910168
 20
221.24033149171271
 11
175.8519062910168
 21
221.24033149171271
  0
LINE
  8
_1-1_
  6
CONTINUOUS
 62
    4
 10
195.8519062910168
 20
221.24033149171271
 11
193.92005463843867
 21
220.72269340150766
  0
LINE
  8
_1-1_
  6
CONTINUOUS
 62
    4
 10
195.8519062910168
 20
221.24033149171271
 11
193.92005463843867
 21
221.75796958191773
  0
LINE
  8
_1-1_
  6
CONTINUOUS
 62
    4
 10
175.8519062910168
 20
221.24033149171271
 11
177.78375794359494
 21
220.72269340150766
  0
LINE
  8
_1-1_
  6
CONTINUOUS
 62
    4
 10
175.8519062910168
 20
221.24033149171271
 11
177.78375794359494
 21
221.75796958191773
  0
TEXT
  8
_1-1_
 62
    7
 10
184.2269062910168
 20
221.74033149171271
 40
3
 41
1
 50
0
  1
20
  0
LINE
  8
_1-1_
  6
CONTINUOUS
 62
    4
 10
195.8519062910168
 20
221.24033149171271
 11
195.8519062910168
 21
204.33384012587027
  0
LINE
  8
_1-1_
  6
CONTINUOUS
 62
    4
 10
175.8519062910168
 20
221.24033149171271
 11
175.8519062910168
 21
204.33384012587027
  0
LINE
  8
_1-1_
  6
CONTINUOUS
 62
    4
 10
184.3184329482672
 20
210.57031642390757
 11
171.5590155700653
 21
221.24033149171271
  0
LINE
  8
_1-1_
  6
CONTINUOUS
 62
    4
 10
184.3184329482672
 20
210.57031642390757
 11
182.50440264647239
 21
211.41251240120158
  0
LINE
  8
_1-1_
  6
CONTINUOUS
 62
    4
 10
184.3184329482672
 20
210.57031642390757
 11
183.16853461232515
 21
212.20669468610666
  0
TEXT
  8
_1-1_
 62
    7
 10
162.31943746860873
 20
221.56981416373682
 40
3
 41
1
 50
0
  1
φ4.3
  0
LINE
  8
_1-1_
  6
CONTINUOUS
 62
    4
 10
171.5590155700653
 20
221.24033149171271
 11
161.21948769462583
 21
221.24033149171271
  0
LINE
  8
_1-2_
  6
CONTINUOUS
 62
    6
 10
169.3519062910168
 20
188.13891682359946
 11
202.3519062910168
 21
188.13891682359946
  0
LINE
  8
_1-2_
  6
CONTINUOUS
 62
    6
 10
170.3519062910168
 20
189.13891682359946
 11
201.3519062910168
 21
189.13891682359946
  0
LINE
  8
_1-1_
  6
CONTINUOUS
 62
    4
 10
213.3519062910168
 20
188.13891682359946
 11
212.83426820081175
 21
190.07076847617759
  0
LINE
  8
_1-1_
  6
CONTINUOUS
 62
    4
 10
213.3519062910168
 20
188.13891682359946
 11
213.86954438122186
 21
190.07076847617759
  0
LINE
  8
_1-1_
  6
CONTINUOUS
 62
    4
 10
213.3519062910168
 20
188.13891682359946
 11
203.3519062910168
 21
188.13891682359946
  0
LINE
  8
_1-1_
  6
CONTINUOUS
 62
    4
 10
213.3519062910168
 20
188.13891682359946
 11
213.3519062910168
 21
203.13891682359946
  0
LINE
  8
_1-2_
  6
CONTINUOUS
 62
    6
 10
202.3519062910168
 20
188.13891682359946
 11
202.3519062910168
 21
203.13891682359946
  0
LINE
  8
_1-2_
  6
CONTINUOUS
 62
    6
 10
201.3519062910168
 20
189.13891682359946
 11
201.3519062910168
 21
202.13891682359946
  0
LINE
  8
_1-2_
  6
CONTINUOUS
 62
    6
 10
170.3519062910168
 20
189.13891682359946
 11
170.3519062910168
 21
202.13891682359946
  0
LINE
  8
_1-2_
  6
CONTINUOUS
 62
    6
 10
169.3519062910168
 20
188.13891682359946
 11
169.3519062910168
 21
203.13891682359946
  0
CIRCLE
  8
_1-2_
  6
CONTINUOUS
 62
    6
 10
170.8519062910168
 20
195.88891682359946
 40
0.5
  0
CIRCLE
  8
_1-2_
  6
CONTINUOUS
 62
    6
 10
200.8519062910168
 20
195.88891682359946
 40
0.5
  0
TEXT
  8
_1-1_
 62
    7
 10
212.8519062910168
 20
194.26391682359946
 40
3
 41
1
 50
90
  1
15
  0
TEXT
  8
_1-1_
 62
    7
 10
212.8519062910168
 20
147.76391682359946
 40
3
 41
1
 50
90
  1
300
  0
LINE
  8
_1-1_
  6
CONTINUOUS
 62
    4
 10
169.3519062910168
 20
102.13891682359946
 11
202.3519062910168
 21
102.13891682359946
  0
LINE
  8
_1-1_
  6
CONTINUOUS
 62
    4
 10
169.3519062910168
 20
102.13891682359946
 11
171.28375794359494
 21
102.6565549138045
  0
LINE
  8
_1-1_
  6
CONTINUOUS
 62
    4
 10
169.3519062910168
 20
102.13891682359946
 11
171.28375794359494
 21
101.62127873339442
  0
LINE
  8
_1-1_
  6
CONTINUOUS
 62
    4
 10
202.3519062910168
 20
102.13891682359946
 11
200.42005463843867
 21
102.6565549138045
  0
LINE
  8
_1-1_
  6
CONTINUOUS
 62
    4
 10
202.3519062910168
 20
102.13891682359946
 11
200.42005463843867
 21
101.62127873339442
  0
LINE
  8
_1-1_
  6
CONTINUOUS
 62
    4
 10
169.3519062910168
 20
102.13891682359946
 11
169.3519062910168
 21
112.13891682359946
  0
LINE
  8
_1-1_
  6
CONTINUOUS
 62
    4
 10
202.3519062910168
 20
102.13891682359946
 11
202.3519062910168
 21
112.13891682359946
  0
TEXT
  8
_1-1_
 62
    7
 10
184.2269062910168
 20
102.63891682359946
 40
3
 41
1
 50
0
  1
33
  0
LINE
  8
_1-2_
  6
CONTINUOUS
 62
    6
 10
170.4519062910168
 20
161.13891682359946
 11
171.25190629101681
 21
161.13891682359946
  0
LINE
  8
_1-2_
  6
CONTINUOUS
 62
    6
 10
200.4519062910168
 20
161.13891682359946
 11
201.25190629101681
 21
161.13891682359946
  0
LINE
  8
_1-2_
  6
CONTINUOUS
 62
    6
 10
229.95190629101677
 20
161.13891682359946
 11
230.75190629101678
 21
161.13891682359946
  0
LINE
  8
_1-2_
  6
CONTINUOUS
 62
    6
 10
202.3519062910168
 20
136.13891682359946
 11
169.3519062910168
 21
136.13891682359946
  0
TEXT
  8
_1-2_
 62
    7
 10
183.08539794267574
 20
125.87376069283422
 40
2.5
 41
1
 50
0
  1
型式
  0
LINE
  8
_1-1_
  6
CONTINUOUS
 62
    4
 10
258.8519062910168
 20
113.13891682359946
 11
258.8519062910168
 21
117.13891682359946
  0
LINE
  8
_1-1_
  6
CONTINUOUS
 62
    4
 10
258.8519062910168
 20
113.13891682359946
 11
248.8519062910168
 21
113.13891682359946
  0
LINE
  8
_1-1_
  6
CONTINUOUS
 62
    4
 10
258.8519062910168
 20
117.13891682359946
 11
248.8519062910168
 21
117.13891682359946
  0
TEXT
  8
_1-1_
 62
    7
 10
258.3519062910168
 20
114.38891682359946
 40
3
 41
1
 50
90
  1
4
  0
LINE
  8
_1-1_
  6
CONTINUOUS
 62
    4
 10
258.8519062910168
 20
113.13891682359946
 11
259.29338861019278
 21
114.78655126940762
  0
LINE
  8
_1-1_
  6
CONTINUOUS
 62
    4
 10
258.8519062910168
 20
117.13891682359946
 11
258.4354011474415
 21
115.58449846616264
  0
LINE
  8
_1-1_
  6
CONTINUOUS
 62
    4
 10
258.8519062910168
 20
117.13891682359946
 11
259.26022208534897
 21
115.61506153361893
  0
LINE
  8
_1-1_
  6
CONTINUOUS
 62
    4
 10
258.8519062910168
 20
113.13891682359946
 11
258.40782728467497
 21
114.79624223784188
  0
ENDSEC
  0
EOF
