  0
SECTION
  2
HEADER
  9
$ACADVER
  1
AC1009
  9
$INSBASE
 10
0
 20
0
 30
0
  9
$EXTMIN
 10
0
 20
0
  9
$EXTMAX
 10
420
 20
297
  9
$LIMMIN
 10
0
 20
0
  9
$LIMMAX
 10
420
 20
297
  9
$LTSCALE
 40
1
  0
ENDSEC
  0
SECTION
  2
TABLES
  0
TABLE
  2
LTYPE
 70
     9
  0
LTYPE
  2
CONTINUOUS
 70
    64
  3
実線
 72
    65
 73
     0
 40
0.0
  0
LTYPE
  2
DASHED1
 70
    64
  3
--  --  --  --  --  --  --  --  
 72
    65
 73
     2
 40
2.5
 49
1.25
 49
-1.25
  0
LTYPE
  2
DASHED2
 70
    64
  3
----    ----    ----    ----    
 72
    65
 73
     2
 40
5.0
 49
2.5
 49
-2.5
  0
LTYPE
  2
DASHED3
 70
    64
  3
------  ------  ------  ------  
 72
    65
 73
     2
 40
5.0
 49
3.75
 49
-1.25
  0
LTYPE
  2
CENTER1
 70
    64
  3
----- - ----- - ----- - ----- - 
 72
    65
 73
     4
 40
10.0
 49
6.25
 49
-1.25
 49
1.25
 49
-1.25
  0
LTYPE
  2
CENTER2
 70
    64
  3
----------  --  ----------  --  
 72
    65
 73
     4
 40
20.0
 49
12.5
 49
-2.5
 49
2.5
 49
-2.5
  0
LTYPE
  2
PHANTOM1
 70
    64
  3
--- - - --- - - --- - - --- - - 
 72
    65
 73
     6
 40
10.0
 49
3.25
 49
-1.25
 49
1.25
 49
-1.25
 49
1.25
 49
-1.25
  0
LTYPE
  2
PHANTOM2
 70
    64
  3
--------  -  -  --------  -  -  
 72
    65
 73
     6
 40
20.0
 49
10.0
 49
-2.5
 49
1.25
 49
-2.5
 49
1.25
 49
-2.5
  0
LTYPE
  2
DOT
 70
    64
  3
-   -   -   -   -   -   -   -   
 72
    65
 73
     2
 40
2.5
 49
0.625
 49
-1.875
  0
LTYPE
  2
DUMMY
 70
    64
  3
ダミー
 72
    65
 73
     0
 40
0.0
  0
LTYPE
  2
RAND1
 70
    64
  3
ランダム線1
 72
    65
 73
     4
 40
10.0
 49
1.0
 49
-2.0
 49
3.0
 49
-4.0
  0
LTYPE
  2
RAND2
 70
    64
  3
ランダム線2
 72
    65
 73
     4
 40
14.0
 49
2.0
 49
-3.0
 49
4.0
 49
-5.0
  0
LTYPE
  2
RAND3
 70
    64
  3
ランダム線3
 72
    65
 73
     4
 40
18.0
 49
3.0
 49
-4.0
 49
5.0
 49
-6.0
  0
LTYPE
  2
RAND4
 70
    64
  3
ランダム線4
 72
    65
 73
     4
 40
22.0
 49
4.0
 49
-5.0
 49
6.0
 49
-7.0
  0
LTYPE
  2
RAND5
 70
    64
  3
ランダム線5
 72
    65
 73
     4
 40
26.0
 49
5.0
 49
-6.0
 49
7.0
 49
-8.0
  0
LTYPE
  2
LONG1
 70
    64
  3
----------  --  ----------  --  
 72
    65
 73
     4
 40
40.0
 49
32.5
 49
-2.5
 49
2.5
 49
-2.5
  0
LTYPE
  2
LONG2
 70
    64
  3
--------  -  -  --------  -  -  
 72
    65
 73
     6
 40
40.0
 49
30.0
 49
-2.5
 49
1.25
 49
-2.5
 49
1.25
 49
-2.5
  0
LTYPE
  2
LONG3
 70
    64
  3
+++++++++++++++..+++++++++++++++
 72
    65
 73
     2
 40
40.0
 49
37.5
 49
-2.5
  0
LTYPE
  2
LONG4
 70
    64
  3
+++++++++++++++..+++++++++++++++
 72
    65
 73
     2
 40
80.0
 49
75.0
 49
-5.0
  0
LTYPE
  2
LONG5
 70
    64
  3
----------  --  ----------  --  
 72
    65
 73
     4
 40
60.0
 49
37.5
 49
-7.5
 49
7.5
 49
-7.5
  0
LTYPE
  2
dashed
 70
   64
  3
-------   -------------   ------
 72
   65
 73
    2
 40
7.5
 49
6
 49
-1.5
  0
LTYPE
  2
dashed_spaced
 70
   64
  3
----        --------        ----
 72
   65
 73
    2
 40
12
 49
6
 49
-6
  0
LTYPE
  2
long_dashed_dotted
 70
   64
  3
------------- --- --------------
 72
   65
 73
    4
 40
15.25
 49
12
 49
-1.5
 49
0.25
 49
-1.5
  0
LTYPE
  2
long_dashed_double-dotted
 70
   64
  3
----------- --- --- ------------
 72
   65
 73
    6
 40
17
 49
12
 49
-1.5
 49
0.25
 49
-1.5
 49
0.25
 49
-1.5
  0
LTYPE
  2
long_dashed_triplicate-dotted
 70
   64
  3
--------- --- --- --- ----------
 72
   65
 73
    8
 40
18.75
 49
12
 49
-1.5
 49
0.25
 49
-1.5
 49
0.25
 49
-1.5
 49
0.25
 49
-1.5
  0
LTYPE
  2
dotted
 70
   64
  3
   -       -       -       -    
 72
   65
 73
    2
 40
1.75
 49
0.25
 49
-1.5
  0
LTYPE
  2
chain
 70
   64
  3
-------------- -- --------------
 72
   65
 73
    4
 40
18.5
 49
12
 49
-1.5
 49
3.5
 49
-1.5
  0
LTYPE
  2
chain_double_dash
 70
   64
  3
------------ -- -- -------------
 72
   65
 73
    6
 40
23.5
 49
12
 49
-1.5
 49
3.5
 49
-1.5
 49
3.5
 49
-1.5
  0
LTYPE
  2
dashed_dotted
 70
   64
  3
-----------     -     ----------
 72
   65
 73
    4
 40
9.25
 49
6
 49
-1.5
 49
0.25
 49
-1.5
  0
LTYPE
  2
double-dashed_dotted
 70
   64
  3
------   -----------   -   -----
 72
   65
 73
    6
 40
16.75
 49
6
 49
-1.5
 49
6
 49
-1.5
 49
0.25
 49
-1.5
  0
LTYPE
  2
dashed_double-dotted
 70
   64
  3
---------    -    -    ---------
 72
   65
 73
    6
 40
11
 49
6
 49
-1.5
 49
0.25
 49
-1.5
 49
0.25
 49
-1.5
  0
LTYPE
  2
double-dashed_double-dotted
 70
   64
  3
-----   ---------   -   -   ----
 72
   65
 73
    8
 40
18.5
 49
6
 49
-1.5
 49
6
 49
-1.5
 49
0.25
 49
-1.5
 49
0.25
 49
-1.5
  0
LTYPE
  2
dashed_triplicate-dotted
 70
   64
  3
-------    -    -    -    ------
 72
   65
 73
    8
 40
12.75
 49
6
 49
-1.5
 49
0.25
 49
-1.5
 49
0.25
 49
-1.5
 49
0.25
 49
-1.5
  0
LTYPE
  2
double-dashed_triplicate-dotted
 70
   64
  3
-----  ---------  -  -  -  -----
 72
   65
 73
   10
 40
20.25
 49
6
 49
-1.5
 49
6
 49
-1.5
 49
0.25
 49
-1.5
 49
0.25
 49
-1.5
 49
0.25
 49
-1.5
  0
LTYPE
  2
undefined
 70
   64
  3
--------------------------------
 72
   65
 73
    0
 40
0
  0
ENDTAB
  0
TABLE
  2
STYLE
  5
3
100
AcDbSymbolTable
 70
     1
  0
STYLE
  5
10
100
AcDbSymbolTableRecord
100
AcDbTextStyleTableRecord
  2
STANDARD
 70
     0
 40
0.0
 41
1.0
 50
0.0
 71
     0
 42
0.2
  3
txt
  4
bigfont.shx
  0
STYLE
  5
26
100
AcDbSymbolTableRecord
100
AcDbTextStyleTableRecord
  2
TATEGAKI
 70
    68
 40
0.0
 41
1.0
 50
0.0
 71
     0
 42
1.0
  3
txt
  4
bigfont.shx
  0
ENDTAB
  0
TABLE
  2
LAYER
 70
    4
  0
LAYER
  2
_0-1_
 70
   64
 62
    7
  6
CONTINUOUS
  0
LAYER
  2
_1-1_
 70
   64
 62
    7
  6
CONTINUOUS
  0
LAYER
  2
_1-2_
 70
   64
 62
    7
  6
CONTINUOUS
  0
LAYER
  2
ADD_LINE
 70
   64
 62
    7
  6
CONTINUOUS
  0
ENDTAB
  0
ENDSEC
  0
SECTION
  2
BLOCKS
  0
ENDSEC
  0
SECTION
  2
ENTITIES
  0
LINE
  8
_0-1_
  6
CONTINUOUS
 62
    3
 10
109.91378294262526
 20
10.082039243805809
 11
109.59104797587588
 21
10.082039243805809
  0
LINE
  8
_0-1_
  6
CONTINUOUS
 62
    3
 10
109.59104797587588
 20
10.082039243805809
 11
109.59104797587588
 21
280.35561316697232
  0
LINE
  8
_0-1_
  6
CONTINUOUS
 62
    3
 10
289.74820746365236
 20
280.35561316697232
 11
289.74820746365236
 21
10.082039243805809
  0
LINE
  8
_0-1_
  6
CONTINUOUS
 62
    3
 10
109.59104797587588
 20
280.35561316697232
 11
289.74820746365236
 21
280.35561316697232
  0
LINE
  8
_0-1_
  6
CONTINUOUS
 62
    3
 10
289.74820746365236
 20
10.082039243805809
 11
109.59104797587588
 21
10.082039243805809
  0
LINE
  8
_0-1_
  6
CONTINUOUS
 62
    3
 10
289.74820746365236
 20
25.082039243805809
 11
109.59104797587588
 21
25.082039243805809
  0
LINE
  8
_0-1_
  6
CONTINUOUS
 62
    3
 10
169.59104797587588
 20
10.082039243805809
 11
169.59104797587588
 21
25.082039243805809
  0
LINE
  8
_0-1_
  6
CONTINUOUS
 62
    3
 10
229.59104797587588
 20
10.082039243805809
 11
229.59104797587588
 21
25.082039243805809
  0
TEXT
  8
_0-1_
 62
    7
 10
111.53633893959282
 20
21.577207655443985
 40
2
 41
1
 50
0
  1
ＴＩＴＬＥ
  0
TEXT
  8
_0-1_
 62
    7
 10
171.46168920362626
 20
21.325420469460653
 40
2
 41
1
 50
0
  1
ＭＯＤＥＬ
  0
TEXT
  8
_0-1_
 62
    7
 10
236.24586551082081
 20
15.198940813772481
 40
4
 41
1
 50
0
  1
日伸制御機工株式会社
  0
TEXT
  8
_0-1_
 62
    7
 10
119.50276243093923
 20
14.378453038674053
 40
4
 41
1
 50
0
  1
スパークケンチャー
  0
LINE
  8
_1-2_
  6
CONTINUOUS
 62
    6
 10
244.8519062910168
 20
161.13891682359946
 11
245.8519062910168
 21
161.13891682359946
  0
ARC
  8
_1-2_
  6
CONTINUOUS
 62
    6
 10
245.75336488551753
 20
147.93696211697198
 40
0.5
 50
216.59041666293757
 51
281.36642136727284
  0
ARC
  8
_1-2_
  6
CONTINUOUS
 62
    6
 10
245.75336488551753
 20
148.93696211697198
 40
0.5
 50
216.59041666293757
 51
281.36642136727284
  0
ARC
  8
_1-2_
  6
CONTINUOUS
 62
    6
 10
244.95044769651608
 20
148.34087153022693
 40
0.5
 50
36.590416662937571
 51
101.36642136727282
  0
ARC
  8
_1-2_
  6
CONTINUOUS
 62
    6
 10
244.95044769651608
 20
147.34087153022693
 40
0.5
 50
36.590416662937571
 51
101.36642136727282
  0
LINE
  8
_1-2_
  6
CONTINUOUS
 62
    6
 10
244.8519062910168
 20
161.13891682359946
 11
244.8519062910168
 21
148.83106495266571
  0
LINE
  8
_1-2_
  6
CONTINUOUS
 62
    6
 10
244.8519062910168
 20
147.83106495266571
 11
244.8519062910168
 21
136.13891682359946
  0
LINE
  8
_1-2_
  6
CONTINUOUS
 62
    6
 10
245.8519062910168
 20
161.13891682359946
 11
245.8519062910168
 21
148.4467686945332
  0
LINE
  8
_1-2_
  6
CONTINUOUS
 62
    6
 10
245.8519062910168
 20
147.4467686945332
 11
245.8519062910168
 21
136.13891682359946
  0
CIRCLE
  8
_1-2_
  6
CONTINUOUS
 62
    6
 10
197.8519062910168
 20
193.63891682359946
 40
0.5
  0
LINE
  8
_1-2_
  6
CONTINUOUS
 62
    6
 10
197.3519062910168
 20
161.13891682359946
 11
198.3519062910168
 21
161.13891682359946
  0
ARC
  8
_1-2_
  6
CONTINUOUS
 62
    6
 10
198.25336488551753
 20
147.93696211697198
 40
0.5
 50
216.59041666293757
 51
281.36642136727284
  0
ARC
  8
_1-2_
  6
CONTINUOUS
 62
    6
 10
198.25336488551753
 20
148.93696211697198
 40
0.5
 50
216.59041666293757
 51
281.36642136727284
  0
ARC
  8
_1-2_
  6
CONTINUOUS
 62
    6
 10
197.45044769651608
 20
148.34087153022693
 40
0.5
 50
36.590416662937571
 51
101.36642136727282
  0
ARC
  8
_1-2_
  6
CONTINUOUS
 62
    6
 10
197.45044769651608
 20
147.34087153022693
 40
0.5
 50
36.590416662937571
 51
101.36642136727282
  0
LINE
  8
_1-2_
  6
CONTINUOUS
 62
    6
 10
197.3519062910168
 20
161.13891682359946
 11
197.3519062910168
 21
148.83106495266571
  0
LINE
  8
_1-2_
  6
CONTINUOUS
 62
    6
 10
197.3519062910168
 20
147.83106495266571
 11
197.3519062910168
 21
136.13891682359946
  0
LINE
  8
_1-2_
  6
CONTINUOUS
 62
    6
 10
198.3519062910168
 20
161.13891682359946
 11
198.3519062910168
 21
148.4467686945332
  0
LINE
  8
_1-2_
  6
CONTINUOUS
 62
    6
 10
198.3519062910168
 20
147.4467686945332
 11
198.3519062910168
 21
136.13891682359946
  0
LINE
  8
_1-1_
  6
CONTINUOUS
 62
    4
 10
198.3519062910168
 20
158.11439599745819
 11
198.73994734407179
 21
160.07639093658111
  0
LINE
  8
_1-1_
  6
CONTINUOUS
 62
    4
 10
198.3519062910168
 20
158.11439599745819
 11
199.66895717023516
 21
159.61951293030765
  0
LINE
  8
_1-1_
  6
CONTINUOUS
 62
    4
 10
203.06269036771474
 20
167.79609169690315
 11
233.77389076952289
 21
167.79609169690315
  0
TEXT
  8
_1-1_
 62
    7
 10
204.03456379815171
 20
172.84983353517535
 40
3
 41
1
 50
0
  1
耐熱ビニール電線(赤)
  0
LINE
  8
_1-1_
  6
CONTINUOUS
 62
    4
 10
198.38593086153918
 20
158.28642943218151
 11
203.06269036771474
 21
167.79609169690315
  0
TEXT
  8
_1-1_
 62
    7
 10
204.74261099950803
 20
168.62759073288362
 40
3
 41
1
 50
0
  1
0.75mm
  0
TEXT
  8
_1-1_
 62
    4
 10
215.37263949791662
 20
170.05505465201139
 40
2
 41
1
 50
0
  1
2
  0
LINE
  8
_1-1_
  6
CONTINUOUS
 62
    4
 10
211.8519062910168
 20
136.13891682359946
 11
201.8519062910168
 21
136.13891682359946
  0
LINE
  8
_1-1_
  6
CONTINUOUS
 62
    4
 10
211.8519062910168
 20
136.13891682359946
 11
211.8519062910168
 21
161.13891682359946
  0
LINE
  8
_1-1_
  6
CONTINUOUS
 62
    4
 10
211.8519062910168
 20
136.13891682359946
 11
211.33426820081175
 21
138.07076847617759
  0
LINE
  8
_1-1_
  6
CONTINUOUS
 62
    4
 10
211.8519062910168
 20
136.13891682359946
 11
212.36954438122186
 21
138.07076847617759
  0
LINE
  8
_1-1_
  6
CONTINUOUS
 62
    4
 10
211.8519062910168
 20
161.13891682359946
 11
211.33426820081178
 21
159.20706517102133
  0
LINE
  8
_1-1_
  6
CONTINUOUS
 62
    4
 10
211.8519062910168
 20
161.13891682359946
 11
212.36954438122186
 21
159.20706517102133
  0
LINE
  8
_1-1_
  6
CONTINUOUS
 62
    4
 10
211.8519062910168
 20
161.13891682359946
 11
201.8519062910168
 21
161.13891682359946
  0
TEXT
  8
_1-1_
 62
    7
 10
211.3519062910168
 20
146.13891682359946
 40
3
 41
1
 50
90
  1
300
  0
LINE
  8
_1-2_
  6
CONTINUOUS
 62
    6
 10
200.8519062910168
 20
136.13891682359946
 11
168.8519062910168
 21
136.13891682359946
  0
LINE
  8
_1-2_
  6
DASHED1
 62
    4
 10
192.34631146374153
 20
121.13851590721784
 11
192.34631146374153
 21
125.13851590721784
  0
LINE
  8
_1-2_
  6
DASHED1
 62
    4
 10
178.34631146374153
 20
121.13851590721784
 11
178.34631146374153
 21
125.13851590721784
  0
LINE
  8
_1-2_
  6
DASHED1
 62
    4
 10
178.34631146374153
 20
121.13851590721784
 11
192.34631146374153
 21
121.13851590721784
  0
LINE
  8
_1-2_
  6
DASHED1
 62
    4
 10
178.34631146374153
 20
125.13851590721784
 11
192.34631146374153
 21
125.13851590721784
  0
LINE
  8
_1-2_
  6
CONTINUOUS
 62
    6
 10
168.8519062910168
 20
188.63891682359946
 11
168.8519062910168
 21
198.63891682359946
  0
LINE
  8
_1-2_
  6
CONTINUOUS
 62
    6
 10
200.8519062910168
 20
198.63891682359946
 11
200.8519062910168
 21
188.63891682359946
  0
LINE
  8
_1-2_
  6
CONTINUOUS
 62
    6
 10
240.3519062910168
 20
136.13891682359946
 11
250.3519062910168
 21
136.13891682359946
  0
LINE
  8
_1-2_
  6
CONTINUOUS
 62
    6
 10
201.8519062910168
 20
109.13891682359946
 11
201.8519062910168
 21
108.03891682359946
  0
LINE
  8
_1-2_
  6
CONTINUOUS
 62
    6
 10
201.8519062910168
 20
109.13891682359946
 11
168.8519062910168
 21
109.13891682359946
  0
LINE
  8
_1-2_
  6
CONTINUOUS
 62
    6
 10
168.55190629101679
 20
108.03891682359946
 11
167.05190629101679
 21
108.03891682359946
  0
LINE
  8
_1-2_
  6
CONTINUOUS
 62
    6
 10
164.05190629101679
 20
108.03891682359946
 11
163.05190629101679
 21
108.03891682359946
  0
LINE
  8
_1-2_
  6
CONTINUOUS
 62
    6
 10
165.05190629101679
 20
107.03891682359946
 11
164.05190629101679
 21
107.03891682359946
  0
LINE
  8
_1-2_
  6
CONTINUOUS
 62
    6
 10
164.05190629101679
 20
107.03891682359946
 11
164.05190629101679
 21
108.03891682359946
  0
LINE
  8
_1-2_
  6
CONTINUOUS
 62
    6
 10
163.05190629101679
 20
105.03891682359946
 11
163.05190629101679
 21
108.03891682359946
  0
LINE
  8
_1-2_
  6
CONTINUOUS
 62
    6
 10
168.55190629101679
 20
108.03891682359946
 11
168.55190629101679
 21
107.03891682359946
  0
LINE
  8
_1-2_
  6
CONTINUOUS
 62
    6
 10
168.55190629101679
 20
107.03891682359946
 11
166.55190629101679
 21
105.03891682359946
  0
LINE
  8
_1-2_
  6
CONTINUOUS
 62
    6
 10
166.55190629101679
 20
105.03891682359946
 11
163.05190629101679
 21
105.03891682359946
  0
LINE
  8
_1-2_
  6
CONTINUOUS
 62
    6
 10
165.05190629101679
 20
107.03891682359946
 11
165.05190629101679
 21
117.33891682359946
  0
LINE
  8
_1-2_
  6
CONTINUOUS
 62
    6
 10
168.8519062910168
 20
121.13891682359946
 11
165.05190629101679
 21
117.33891682359946
  0
ARC
  8
_1-2_
  6
CONTINUOUS
 62
    6
 10
167.9519062910168
 20
116.73891682359945
 40
0.8675177811586505
 50
0
 51
177.66387088935707
  0
LINE
  8
_1-2_
  6
CONTINUOUS
 62
    6
 10
167.05190629101679
 20
116.77427845192871
 11
167.05190629101679
 21
108.03891682359946
  0
LINE
  8
_1-2_
  6
CONTINUOUS
 62
    6
 10
168.8519062910168
 20
136.13891682359946
 11
168.8519062910168
 21
121.13891682359946
  0
LINE
  8
_1-2_
  6
CONTINUOUS
 62
    6
 10
168.8519062910168
 20
116.73891682359945
 11
168.8519062910168
 21
109.13891682359946
  0
LINE
  8
_1-2_
  6
CONTINUOUS
 62
    6
 10
200.8519062910168
 20
136.13891682359946
 11
200.8519062910168
 21
121.13891682359946
  0
LINE
  8
_1-2_
  6
CONTINUOUS
 62
    6
 10
163.05190629101679
 20
188.81494903862963
 11
163.05190629101679
 21
190.19410274411649
  0
LINE
  8
_1-2_
  6
CONTINUOUS
 62
    6
 10
164.05190629101679
 20
188.63891682359946
 11
164.05190629101679
 21
198.63891682359946
  0
LINE
  8
_1-2_
  6
CONTINUOUS
 62
    6
 10
165.05190629101679
 20
188.63891682359946
 11
165.05190629101679
 21
198.63891682359946
  0
LINE
  8
_1-2_
  6
CONTINUOUS
 62
    6
 10
163.05190629101679
 20
188.81494903862963
 11
163.05190629101679
 21
198.63891682359946
  0
LINE
  8
_1-2_
  6
CONTINUOUS
 62
    6
 10
170.3519062910168
 20
190.13891682359946
 11
170.3519062910168
 21
197.13891682359946
  0
LINE
  8
_1-2_
  6
CONTINUOUS
 62
    6
 10
170.3519062910168
 20
197.13891682359946
 11
199.3519062910168
 21
197.13891682359946
  0
LINE
  8
_1-2_
  6
CONTINUOUS
 62
    6
 10
199.3519062910168
 20
197.13891682359946
 11
199.3519062910168
 21
190.13891682359946
  0
LINE
  8
_1-2_
  6
CONTINUOUS
 62
    6
 10
170.3519062910168
 20
190.13891682359946
 11
199.3519062910168
 21
190.13891682359946
  0
CIRCLE
  8
_1-2_
  6
CONTINUOUS
 62
    6
 10
171.8519062910168
 20
193.63891682359946
 40
0.5
  0
LINE
  8
_1-2_
  6
CONTINUOUS
 62
    6
 10
171.3519062910168
 20
161.13891682359946
 11
172.3519062910168
 21
161.13891682359946
  0
ARC
  8
_1-2_
  6
CONTINUOUS
 62
    6
 10
172.25336488551753
 20
147.93696211697198
 40
0.5
 50
216.59041666293757
 51
281.36642136727284
  0
ARC
  8
_1-2_
  6
CONTINUOUS
 62
    6
 10
172.25336488551753
 20
148.93696211697198
 40
0.5
 50
216.59041666293757
 51
281.36642136727284
  0
ARC
  8
_1-2_
  6
CONTINUOUS
 62
    6
 10
171.45044769651608
 20
148.34087153022693
 40
0.5
 50
36.590416662937571
 51
101.36642136727282
  0
ARC
  8
_1-2_
  6
CONTINUOUS
 62
    6
 10
171.45044769651608
 20
147.34087153022693
 40
0.5
 50
36.590416662937571
 51
101.36642136727282
  0
LINE
  8
_1-2_
  6
CONTINUOUS
 62
    6
 10
171.3519062910168
 20
161.13891682359946
 11
171.3519062910168
 21
148.83106495266571
  0
LINE
  8
_1-2_
  6
CONTINUOUS
 62
    6
 10
171.3519062910168
 20
147.83106495266571
 11
171.3519062910168
 21
136.13891682359946
  0
LINE
  8
_1-2_
  6
CONTINUOUS
 62
    6
 10
172.3519062910168
 20
161.13891682359946
 11
172.3519062910168
 21
148.4467686945332
  0
LINE
  8
_1-2_
  6
CONTINUOUS
 62
    6
 10
172.3519062910168
 20
147.4467686945332
 11
172.3519062910168
 21
136.13891682359946
  0
LINE
  8
_1-2_
  6
CONTINUOUS
 62
    6
 10
240.3519062910168
 20
136.13891682359946
 11
240.3519062910168
 21
105.13891682359946
  0
LINE
  8
_1-2_
  6
CONTINUOUS
 62
    6
 10
241.8519062910168
 20
110.13891682359946
 11
248.8519062910168
 21
110.13891682359946
  0
LINE
  8
_1-2_
  6
CONTINUOUS
 62
    6
 10
248.8519062910168
 20
121.13891682359946
 11
248.8519062910168
 21
110.13891682359946
  0
LINE
  8
_1-2_
  6
CONTINUOUS
 62
    6
 10
241.8519062910168
 20
121.13891682359946
 11
241.8519062910168
 21
110.13891682359946
  0
LINE
  8
_1-2_
  6
CONTINUOUS
 62
    6
 10
240.3519062910168
 20
117.63891682359946
 11
241.8519062910168
 21
117.63891682359946
  0
LINE
  8
_1-2_
  6
CONTINUOUS
 62
    6
 10
248.8519062910168
 20
117.63891682359946
 11
250.3519062910168
 21
117.63891682359946
  0
LINE
  8
_1-2_
  6
CONTINUOUS
 62
    6
 10
240.3519062910168
 20
121.13891682359946
 11
241.8519062910168
 21
121.13891682359946
  0
LINE
  8
_1-2_
  6
CONTINUOUS
 62
    6
 10
248.8519062910168
 20
121.13891682359946
 11
250.3519062910168
 21
121.13891682359946
  0
LINE
  8
_1-2_
  6
CONTINUOUS
 62
    6
 10
240.3519062910168
 20
105.13891682359946
 11
250.3519062910168
 21
105.13891682359946
  0
LINE
  8
_1-2_
  6
CONTINUOUS
 62
    6
 10
250.3519062910168
 20
136.13891682359946
 11
250.3519062910168
 21
109.19035660472125
  0
LINE
  8
_1-2_
  6
CONTINUOUS
 62
    6
 10
250.3519062910168
 20
109.19035660472125
 11
250.3519062910168
 21
105.13891682359946
  0
LINE
  8
_1-2_
  6
DASHED1
 62
    6
 10
240.3519062910168
 20
109.13891682359946
 11
250.3519062910168
 21
109.13891682359946
  0
LINE
  8
_1-1_
  6
CONTINUOUS
 62
    4
 10
211.8519062910168
 20
109.13891682359946
 11
211.8519062910168
 21
136.13891682359946
  0
LINE
  8
_1-1_
  6
CONTINUOUS
 62
    4
 10
211.8519062910168
 20
109.13891682359946
 11
211.33426820081175
 21
111.07076847617759
  0
LINE
  8
_1-1_
  6
CONTINUOUS
 62
    4
 10
211.8519062910168
 20
109.13891682359946
 11
212.36954438122183
 21
111.07076847617759
  0
LINE
  8
_1-1_
  6
CONTINUOUS
 62
    4
 10
211.8519062910168
 20
136.13891682359946
 11
211.33426820081175
 21
134.20706517102133
  0
LINE
  8
_1-1_
  6
CONTINUOUS
 62
    4
 10
211.8519062910168
 20
136.13891682359946
 11
212.36954438122186
 21
134.20706517102133
  0
LINE
  8
_1-1_
  6
CONTINUOUS
 62
    4
 10
211.8519062910168
 20
136.13891682359946
 11
201.8519062910168
 21
136.13891682359946
  0
TEXT
  8
_1-1_
 62
    7
 10
211.3519062910168
 20
121.01391682359946
 40
3
 41
1
 50
90
  1
27
  0
LINE
  8
_1-1_
  6
CONTINUOUS
 62
    4
 10
211.8519062910168
 20
109.13891682359946
 11
205.41486690105475
 21
109.13891682359946
  0
LINE
  8
_1-2_
  6
CONTINUOUS
 62
    6
 10
163.05190629101679
 20
198.63891682359946
 11
169.06529382219992
 21
198.63891682359946
  0
LINE
  8
_1-1_
  6
CONTINUOUS
 62
    4
 10
215.3519062910168
 20
188.63891682359946
 11
215.3519062910168
 21
198.63891682359946
  0
LINE
  8
_1-1_
  6
CONTINUOUS
 62
    4
 10
215.3519062910168
 20
188.63891682359946
 11
214.83426820081175
 21
190.57076847617759
  0
LINE
  8
_1-1_
  6
CONTINUOUS
 62
    4
 10
215.3519062910168
 20
188.63891682359946
 11
215.86954438122186
 21
190.57076847617759
  0
LINE
  8
_1-1_
  6
CONTINUOUS
 62
    4
 10
215.3519062910168
 20
198.63891682359946
 11
214.83426820081175
 21
196.70706517102133
  0
LINE
  8
_1-1_
  6
CONTINUOUS
 62
    4
 10
215.3519062910168
 20
198.63891682359946
 11
215.86954438122186
 21
196.70706517102133
  0
LINE
  8
_1-1_
  6
CONTINUOUS
 62
    4
 10
215.3519062910168
 20
188.63891682359946
 11
205.3519062910168
 21
188.63891682359946
  0
LINE
  8
_1-1_
  6
CONTINUOUS
 62
    4
 10
215.3519062910168
 20
198.63891682359946
 11
205.3519062910168
 21
198.63891682359946
  0
TEXT
  8
_1-1_
 62
    7
 10
214.8519062910168
 20
192.01391682359946
 40
3
 41
1
 50
90
  1
10
  0
LINE
  8
_1-2_
  6
CONTINUOUS
 62
    6
 10
200.3519062910168
 20
107.03891682359946
 11
202.55190629101679
 21
105.13891682359946
  0
LINE
  8
_1-2_
  6
CONTINUOUS
 62
    6
 10
200.3519062910168
 20
108.03891682359946
 11
200.3519062910168
 21
107.03891682359946
  0
LINE
  8
_1-2_
  6
CONTINUOUS
 62
    6
 10
204.55190629101679
 20
105.13891682359946
 11
202.55190629101679
 21
105.13891682359946
  0
LINE
  8
_1-2_
  6
CONTINUOUS
 62
    6
 10
201.8519062910168
 20
108.03891682359946
 11
200.3519062910168
 21
108.03891682359946
  0
LINE
  8
_1-2_
  6
CONTINUOUS
 62
    6
 10
204.55190629101679
 20
117.43891682359946
 11
200.8519062910168
 21
121.13891682359946
  0
LINE
  8
_1-2_
  6
CONTINUOUS
 62
    6
 10
204.55190629101679
 20
117.43891682359946
 11
204.55190629101679
 21
105.13891682359946
  0
LINE
  8
_1-2_
  6
CONTINUOUS
 62
    6
 10
169.06529382219992
 20
198.63891682359946
 11
204.55190629101679
 21
198.63891682359946
  0
LINE
  8
_1-2_
  6
CONTINUOUS
 62
    6
 10
200.8519062910168
 20
197.13891682359946
 11
204.55190629101679
 21
197.13891682359946
  0
LINE
  8
_1-2_
  6
CONTINUOUS
 62
    6
 10
200.8519062910168
 20
190.13891682359946
 11
204.55190629101679
 21
190.13891682359946
  0
LINE
  8
_1-2_
  6
CONTINUOUS
 62
    6
 10
163.05190629101679
 20
188.63891682359946
 11
204.55190629101679
 21
188.63891682359946
  0
LINE
  8
_1-2_
  6
CONTINUOUS
 62
    6
 10
204.55190629101679
 20
188.63891682359946
 11
204.55190629101679
 21
198.63891682359946
  0
LINE
  8
_1-1_
  6
CONTINUOUS
 62
    4
 10
204.55190629101679
 20
209.63891682359946
 11
163.05190629101679
 21
209.63891682359946
  0
LINE
  8
_1-1_
  6
CONTINUOUS
 62
    4
 10
204.55190629101679
 20
209.63891682359946
 11
202.62005463843866
 21
209.1212787333944
  0
LINE
  8
_1-1_
  6
CONTINUOUS
 62
    4
 10
204.55190629101679
 20
209.63891682359946
 11
202.62005463843866
 21
210.15655491380448
  0
LINE
  8
_1-1_
  6
CONTINUOUS
 62
    4
 10
163.05190629101679
 20
209.63891682359946
 11
164.98375794359495
 21
209.12127873339443
  0
LINE
  8
_1-1_
  6
CONTINUOUS
 62
    4
 10
163.05190629101679
 20
209.63891682359946
 11
164.98375794359495
 21
210.15655491380448
  0
LINE
  8
_1-1_
  6
CONTINUOUS
 62
    4
 10
204.55190629101679
 20
209.63891682359946
 11
204.55190629101679
 21
199.63891682359946
  0
LINE
  8
_1-1_
  6
CONTINUOUS
 62
    4
 10
163.05190629101679
 20
209.63891682359946
 11
163.05190629101679
 21
199.63891682359946
  0
TEXT
  8
_1-1_
 62
    7
 10
180.42690629101679
 20
210.13891682359946
 40
3
 41
1
 50
0
  1
41.5
  0
LINE
  8
_1-1_
  6
CONTINUOUS
 62
    4
 10
200.8519062910168
 20
204.19110999497738
 11
168.8519062910168
 21
204.19110999497741
  0
LINE
  8
_1-1_
  6
CONTINUOUS
 62
    4
 10
200.8519062910168
 20
204.19110999497738
 11
198.92005463843867
 21
203.67347190477236
  0
LINE
  8
_1-1_
  6
CONTINUOUS
 62
    4
 10
200.8519062910168
 20
204.19110999497738
 11
198.92005463843867
 21
204.70874808518244
  0
LINE
  8
_1-1_
  6
CONTINUOUS
 62
    4
 10
168.8519062910168
 20
204.19110999497741
 11
170.78375794359494
 21
203.67347190477236
  0
LINE
  8
_1-1_
  6
CONTINUOUS
 62
    4
 10
168.8519062910168
 20
204.19110999497741
 11
170.78375794359494
 21
204.70874808518244
  0
TEXT
  8
_1-1_
 62
    7
 10
183.2269062910168
 20
204.69110999497741
 40
3
 41
1
 50
0
  1
32
  0
LINE
  8
_1-1_
  6
CONTINUOUS
 62
    4
 10
200.8519062910168
 20
204.19110999497738
 11
200.8519062910168
 21
199.63891682359946
  0
LINE
  8
_1-1_
  6
CONTINUOUS
 62
    4
 10
168.8519062910168
 20
204.19110999497741
 11
168.8519062910168
 21
199.63891682359946
  0
TEXT
  8
_0-1_
 62
    7
 10
183.54696132596686
 20
14.842541436464074
 40
4
 41
1
 50
0
  1
SQ23150CF
  0
TEXT
  8
_1-2_
 62
    7
 10
182.57980311540047
 20
121.8733597764526
 40
2.5
 41
1
 50
0
  1
型式
  0
ENDSEC
  0
EOF
