  0
SECTION
  2
HEADER
  9
$ACADVER
  1
AC1009
  9
$INSBASE
 10
0
 20
0
 30
0
  9
$EXTMIN
 10
0
 20
0
  9
$EXTMAX
 10
420
 20
297
  9
$LIMMIN
 10
0
 20
0
  9
$LIMMAX
 10
420
 20
297
  9
$LTSCALE
 40
1
  0
ENDSEC
  0
SECTION
  2
TABLES
  0
TABLE
  2
LTYPE
 70
     9
  0
LTYPE
  2
CONTINUOUS
 70
    64
  3
実線
 72
    65
 73
     0
 40
0.0
  0
LTYPE
  2
DASHED1
 70
    64
  3
--  --  --  --  --  --  --  --  
 72
    65
 73
     2
 40
2.5
 49
1.25
 49
-1.25
  0
LTYPE
  2
DASHED2
 70
    64
  3
----    ----    ----    ----    
 72
    65
 73
     2
 40
5.0
 49
2.5
 49
-2.5
  0
LTYPE
  2
DASHED3
 70
    64
  3
------  ------  ------  ------  
 72
    65
 73
     2
 40
5.0
 49
3.75
 49
-1.25
  0
LTYPE
  2
CENTER1
 70
    64
  3
----- - ----- - ----- - ----- - 
 72
    65
 73
     4
 40
10.0
 49
6.25
 49
-1.25
 49
1.25
 49
-1.25
  0
LTYPE
  2
CENTER2
 70
    64
  3
----------  --  ----------  --  
 72
    65
 73
     4
 40
20.0
 49
12.5
 49
-2.5
 49
2.5
 49
-2.5
  0
LTYPE
  2
PHANTOM1
 70
    64
  3
--- - - --- - - --- - - --- - - 
 72
    65
 73
     6
 40
10.0
 49
3.25
 49
-1.25
 49
1.25
 49
-1.25
 49
1.25
 49
-1.25
  0
LTYPE
  2
PHANTOM2
 70
    64
  3
--------  -  -  --------  -  -  
 72
    65
 73
     6
 40
20.0
 49
10.0
 49
-2.5
 49
1.25
 49
-2.5
 49
1.25
 49
-2.5
  0
LTYPE
  2
DOT
 70
    64
  3
-   -   -   -   -   -   -   -   
 72
    65
 73
     2
 40
2.5
 49
0.625
 49
-1.875
  0
LTYPE
  2
DUMMY
 70
    64
  3
ダミー
 72
    65
 73
     0
 40
0.0
  0
LTYPE
  2
RAND1
 70
    64
  3
ランダム線1
 72
    65
 73
     4
 40
10.0
 49
1.0
 49
-2.0
 49
3.0
 49
-4.0
  0
LTYPE
  2
RAND2
 70
    64
  3
ランダム線2
 72
    65
 73
     4
 40
14.0
 49
2.0
 49
-3.0
 49
4.0
 49
-5.0
  0
LTYPE
  2
RAND3
 70
    64
  3
ランダム線3
 72
    65
 73
     4
 40
18.0
 49
3.0
 49
-4.0
 49
5.0
 49
-6.0
  0
LTYPE
  2
RAND4
 70
    64
  3
ランダム線4
 72
    65
 73
     4
 40
22.0
 49
4.0
 49
-5.0
 49
6.0
 49
-7.0
  0
LTYPE
  2
RAND5
 70
    64
  3
ランダム線5
 72
    65
 73
     4
 40
26.0
 49
5.0
 49
-6.0
 49
7.0
 49
-8.0
  0
LTYPE
  2
LONG1
 70
    64
  3
----------  --  ----------  --  
 72
    65
 73
     4
 40
40.0
 49
32.5
 49
-2.5
 49
2.5
 49
-2.5
  0
LTYPE
  2
LONG2
 70
    64
  3
--------  -  -  --------  -  -  
 72
    65
 73
     6
 40
40.0
 49
30.0
 49
-2.5
 49
1.25
 49
-2.5
 49
1.25
 49
-2.5
  0
LTYPE
  2
LONG3
 70
    64
  3
+++++++++++++++..+++++++++++++++
 72
    65
 73
     2
 40
40.0
 49
37.5
 49
-2.5
  0
LTYPE
  2
LONG4
 70
    64
  3
+++++++++++++++..+++++++++++++++
 72
    65
 73
     2
 40
80.0
 49
75.0
 49
-5.0
  0
LTYPE
  2
LONG5
 70
    64
  3
----------  --  ----------  --  
 72
    65
 73
     4
 40
60.0
 49
37.5
 49
-7.5
 49
7.5
 49
-7.5
  0
LTYPE
  2
dashed
 70
   64
  3
-------   -------------   ------
 72
   65
 73
    2
 40
7.5
 49
6
 49
-1.5
  0
LTYPE
  2
dashed_spaced
 70
   64
  3
----        --------        ----
 72
   65
 73
    2
 40
12
 49
6
 49
-6
  0
LTYPE
  2
long_dashed_dotted
 70
   64
  3
------------- --- --------------
 72
   65
 73
    4
 40
15.25
 49
12
 49
-1.5
 49
0.25
 49
-1.5
  0
LTYPE
  2
long_dashed_double-dotted
 70
   64
  3
----------- --- --- ------------
 72
   65
 73
    6
 40
17
 49
12
 49
-1.5
 49
0.25
 49
-1.5
 49
0.25
 49
-1.5
  0
LTYPE
  2
long_dashed_triplicate-dotted
 70
   64
  3
--------- --- --- --- ----------
 72
   65
 73
    8
 40
18.75
 49
12
 49
-1.5
 49
0.25
 49
-1.5
 49
0.25
 49
-1.5
 49
0.25
 49
-1.5
  0
LTYPE
  2
dotted
 70
   64
  3
   -       -       -       -    
 72
   65
 73
    2
 40
1.75
 49
0.25
 49
-1.5
  0
LTYPE
  2
chain
 70
   64
  3
-------------- -- --------------
 72
   65
 73
    4
 40
18.5
 49
12
 49
-1.5
 49
3.5
 49
-1.5
  0
LTYPE
  2
chain_double_dash
 70
   64
  3
------------ -- -- -------------
 72
   65
 73
    6
 40
23.5
 49
12
 49
-1.5
 49
3.5
 49
-1.5
 49
3.5
 49
-1.5
  0
LTYPE
  2
dashed_dotted
 70
   64
  3
-----------     -     ----------
 72
   65
 73
    4
 40
9.25
 49
6
 49
-1.5
 49
0.25
 49
-1.5
  0
LTYPE
  2
double-dashed_dotted
 70
   64
  3
------   -----------   -   -----
 72
   65
 73
    6
 40
16.75
 49
6
 49
-1.5
 49
6
 49
-1.5
 49
0.25
 49
-1.5
  0
LTYPE
  2
dashed_double-dotted
 70
   64
  3
---------    -    -    ---------
 72
   65
 73
    6
 40
11
 49
6
 49
-1.5
 49
0.25
 49
-1.5
 49
0.25
 49
-1.5
  0
LTYPE
  2
double-dashed_double-dotted
 70
   64
  3
-----   ---------   -   -   ----
 72
   65
 73
    8
 40
18.5
 49
6
 49
-1.5
 49
6
 49
-1.5
 49
0.25
 49
-1.5
 49
0.25
 49
-1.5
  0
LTYPE
  2
dashed_triplicate-dotted
 70
   64
  3
-------    -    -    -    ------
 72
   65
 73
    8
 40
12.75
 49
6
 49
-1.5
 49
0.25
 49
-1.5
 49
0.25
 49
-1.5
 49
0.25
 49
-1.5
  0
LTYPE
  2
double-dashed_triplicate-dotted
 70
   64
  3
-----  ---------  -  -  -  -----
 72
   65
 73
   10
 40
20.25
 49
6
 49
-1.5
 49
6
 49
-1.5
 49
0.25
 49
-1.5
 49
0.25
 49
-1.5
 49
0.25
 49
-1.5
  0
LTYPE
  2
undefined
 70
   64
  3
--------------------------------
 72
   65
 73
    0
 40
0
  0
ENDTAB
  0
TABLE
  2
STYLE
  5
3
100
AcDbSymbolTable
 70
     1
  0
STYLE
  5
10
100
AcDbSymbolTableRecord
100
AcDbTextStyleTableRecord
  2
STANDARD
 70
     0
 40
0.0
 41
1.0
 50
0.0
 71
     0
 42
0.2
  3
txt
  4
bigfont.shx
  0
STYLE
  5
26
100
AcDbSymbolTableRecord
100
AcDbTextStyleTableRecord
  2
TATEGAKI
 70
    68
 40
0.0
 41
1.0
 50
0.0
 71
     0
 42
1.0
  3
txt
  4
bigfont.shx
  0
ENDTAB
  0
TABLE
  2
LAYER
 70
    5
  0
LAYER
  2
_0-1_
 70
   64
 62
    7
  6
CONTINUOUS
  0
LAYER
  2
_1-1_
 70
   64
 62
    7
  6
CONTINUOUS
  0
LAYER
  2
_1-2_
 70
   64
 62
    7
  6
CONTINUOUS
  0
LAYER
  2
_1-3_ADD_LINE
 70
   64
 62
    7
  6
CONTINUOUS
  0
LAYER
  2
ADD_LINE
 70
   64
 62
    7
  6
CONTINUOUS
  0
ENDTAB
  0
ENDSEC
  0
SECTION
  2
BLOCKS
  0
ENDSEC
  0
SECTION
  2
ENTITIES
  0
LINE
  8
_0-1_
  6
CONTINUOUS
 62
    3
 10
109.91378294262526
 20
10.082039243805809
 11
109.59104797587588
 21
10.082039243805809
  0
LINE
  8
_0-1_
  6
CONTINUOUS
 62
    3
 10
109.59104797587588
 20
10.082039243805809
 11
109.59104797587588
 21
280.35561316697232
  0
LINE
  8
_0-1_
  6
CONTINUOUS
 62
    3
 10
289.74820746365236
 20
280.35561316697232
 11
289.74820746365236
 21
10.082039243805809
  0
LINE
  8
_0-1_
  6
CONTINUOUS
 62
    3
 10
109.59104797587588
 20
280.35561316697232
 11
289.74820746365236
 21
280.35561316697232
  0
LINE
  8
_0-1_
  6
CONTINUOUS
 62
    3
 10
289.74820746365236
 20
10.082039243805809
 11
109.59104797587588
 21
10.082039243805809
  0
LINE
  8
_0-1_
  6
CONTINUOUS
 62
    3
 10
289.74820746365236
 20
25.082039243805809
 11
109.59104797587588
 21
25.082039243805809
  0
LINE
  8
_0-1_
  6
CONTINUOUS
 62
    3
 10
169.59104797587588
 20
10.082039243805809
 11
169.59104797587588
 21
25.082039243805809
  0
LINE
  8
_0-1_
  6
CONTINUOUS
 62
    3
 10
229.59104797587588
 20
10.082039243805809
 11
229.59104797587588
 21
25.082039243805809
  0
TEXT
  8
_0-1_
 62
    7
 10
111.53633893959282
 20
21.577207655443985
 40
2
 41
1
 50
0
  1
ＴＩＴＬＥ
  0
TEXT
  8
_0-1_
 62
    7
 10
171.46168920362626
 20
21.325420469460653
 40
2
 41
1
 50
0
  1
ＭＯＤＥＬ
  0
TEXT
  8
_0-1_
 62
    7
 10
236.24586551082081
 20
15.198940813772481
 40
4
 41
1
 50
0
  1
日伸制御機工株式会社
  0
TEXT
  8
_0-1_
 62
    7
 10
119.50276243093923
 20
14.378453038674053
 40
4
 41
1
 50
0
  1
スパークケンチャー
  0
LINE
  8
_1-2_
  6
CONTINUOUS
 62
    6
 10
197.3519062910168
 20
137.13891682359946
 11
174.3519062910168
 21
137.13891682359946
  0
LINE
  8
_1-2_
  6
CONTINUOUS
 62
    6
 10
175.3519062910168
 20
143.13891682359946
 11
196.3519062910168
 21
143.13891682359946
  0
LINE
  8
_1-2_
  6
CONTINUOUS
 62
    6
 10
196.3519062910168
 20
137.13891682359946
 11
196.3519062910168
 21
143.13891682359946
  0
LINE
  8
_1-2_
  6
CONTINUOUS
 62
    6
 10
175.3519062910168
 20
137.13891682359946
 11
175.3519062910168
 21
143.13891682359946
  0
LINE
  8
_1-2_
  6
CONTINUOUS
 62
    6
 10
180.3519062910168
 20
168.53891682359946
 11
176.3519062910168
 21
168.53891682359946
  0
LINE
  8
_1-2_
  6
CONTINUOUS
 62
    6
 10
181.8519062910168
 20
169.03891682359946
 11
174.8519062910168
 21
169.03891682359946
  0
LINE
  8
_1-2_
  6
CONTINUOUS
 62
    6
 10
176.3519062910168
 20
169.03891682359946
 11
176.3519062910168
 21
168.53891682359946
  0
LINE
  8
_1-2_
  6
CONTINUOUS
 62
    6
 10
180.3519062910168
 20
169.03891682359946
 11
180.3519062910168
 21
168.53891682359946
  0
LINE
  8
_1-2_
  6
CONTINUOUS
 62
    6
 10
196.3519062910168
 20
167.63891682359946
 11
175.3519062910168
 21
167.63891682359946
  0
LINE
  8
_1-2_
  6
CONTINUOUS
 62
    6
 10
197.3519062910168
 20
177.63891682359946
 11
174.3519062910168
 21
177.63891682359946
  0
LINE
  8
_1-2_
  6
CONTINUOUS
 62
    6
 10
174.3519062910168
 20
167.13891682359946
 11
174.3519062910168
 21
177.63891682359946
  0
LINE
  8
_1-2_
  6
CONTINUOUS
 62
    6
 10
197.3519062910168
 20
167.13891682359946
 11
174.3519062910168
 21
167.13891682359946
  0
LINE
  8
_1-2_
  6
CONTINUOUS
 62
    6
 10
197.3519062910168
 20
167.13891682359946
 11
197.3519062910168
 21
177.63891682359946
  0
LINE
  8
_1-2_
  6
CONTINUOUS
 62
    6
 10
195.3519062910168
 20
168.53891682359946
 11
191.3519062910168
 21
168.53891682359946
  0
LINE
  8
_1-2_
  6
CONTINUOUS
 62
    6
 10
196.8519062910168
 20
169.03891682359946
 11
189.8519062910168
 21
169.03891682359946
  0
LINE
  8
_1-2_
  6
CONTINUOUS
 62
    6
 10
191.3519062910168
 20
169.03891682359946
 11
191.3519062910168
 21
168.53891682359946
  0
LINE
  8
_1-2_
  6
CONTINUOUS
 62
    6
 10
195.3519062910168
 20
169.03891682359946
 11
195.3519062910168
 21
168.53891682359946
  0
LINE
  8
_1-2_
  6
CONTINUOUS
 62
    6
 10
175.3519062910168
 20
167.63891682359946
 11
175.3519062910168
 21
169.03891682359946
  0
LINE
  8
_1-2_
  6
CONTINUOUS
 62
    6
 10
189.8519062910168
 20
169.63891682359946
 11
181.8519062910168
 21
169.63891682359946
  0
LINE
  8
_1-2_
  6
CONTINUOUS
 62
    6
 10
196.3519062910168
 20
167.63891682359946
 11
196.3519062910168
 21
169.03891682359946
  0
ARC
  8
_1-2_
  6
CONTINUOUS
 62
    6
 10
175.6019062910168
 20
175.78891682359946
 40
0.7500000000000001
 50
0
 51
180
  0
ARC
  8
_1-2_
  6
CONTINUOUS
 62
    6
 10
181.1019062910168
 20
175.78891682359946
 40
0.7500000000000001
 50
0
 51
180
  0
ARC
  8
_1-2_
  6
CONTINUOUS
 62
    6
 10
178.3519062910168
 20
172.53891682359946
 40
2
 50
180
 51
0
  0
LINE
  8
_1-3_ADD_LINE
  6
CENTER1
 62
    7
 10
175.986908214035
 20
172.53891682359946
 11
180.94384481548184
 21
172.53891682359946
  0
LINE
  8
_1-3_ADD_LINE
  6
CENTER1
 62
    7
 10
178.3519062910168
 20
170.1476786422881
 11
178.3519062910168
 21
174.73893959280852
  0
ARC
  8
_1-2_
  6
CONTINUOUS
 62
    6
 10
190.6019062910168
 20
175.78891682359946
 40
0.7500000000000001
 50
0
 51
180
  0
ARC
  8
_1-2_
  6
CONTINUOUS
 62
    6
 10
196.1019062910168
 20
175.78891682359946
 40
0.7500000000000001
 50
0
 51
180
  0
ARC
  8
_1-2_
  6
CONTINUOUS
 62
    6
 10
193.3519062910168
 20
172.53891682359946
 40
2
 50
180
 51
0
  0
LINE
  8
_1-3_ADD_LINE
  6
CENTER1
 62
    7
 10
190.986908214035
 20
172.53891682359946
 11
195.94384481548184
 21
172.53891682359946
  0
LINE
  8
_1-3_ADD_LINE
  6
CENTER1
 62
    7
 10
193.3519062910168
 20
170.1476786422881
 11
193.3519062910168
 21
174.73893959280852
  0
LINE
  8
_1-2_
  6
CONTINUOUS
 62
    6
 10
174.8519062910168
 20
169.03891682359946
 11
174.8519062910168
 21
175.78891682359946
  0
LINE
  8
_1-2_
  6
CONTINUOUS
 62
    6
 10
176.3519062910168
 20
172.53891682359946
 11
176.3519062910168
 21
175.78891682359946
  0
LINE
  8
_1-2_
  6
CONTINUOUS
 62
    6
 10
180.3519062910168
 20
172.53891682359946
 11
180.3519062910168
 21
175.78891682359946
  0
LINE
  8
_1-2_
  6
CONTINUOUS
 62
    6
 10
181.8519062910168
 20
169.03891682359946
 11
181.8519062910168
 21
175.78891682359946
  0
LINE
  8
_1-2_
  6
CONTINUOUS
 62
    6
 10
189.8519062910168
 20
169.03891682359946
 11
189.8519062910168
 21
175.78891682359946
  0
LINE
  8
_1-2_
  6
CONTINUOUS
 62
    6
 10
191.3519062910168
 20
172.53891682359946
 11
191.3519062910168
 21
175.78891682359946
  0
LINE
  8
_1-2_
  6
CONTINUOUS
 62
    6
 10
195.3519062910168
 20
172.53891682359946
 11
195.3519062910168
 21
175.78891682359946
  0
LINE
  8
_1-2_
  6
CONTINUOUS
 62
    6
 10
196.8519062910168
 20
169.03891682359946
 11
196.8519062910168
 21
175.78891682359946
  0
LINE
  8
_1-2_
  6
CONTINUOUS
 62
    6
 10
175.3519062910168
 20
176.49602360478599
 11
175.3519062910168
 21
176.63891682359946
  0
LINE
  8
_1-2_
  6
CONTINUOUS
 62
    6
 10
196.3519062910168
 20
176.63891682359946
 11
175.3519062910168
 21
176.63891682359946
  0
LINE
  8
_1-2_
  6
CONTINUOUS
 62
    6
 10
196.3519062910168
 20
176.49602360478599
 11
196.3519062910168
 21
176.63891682359946
  0
LINE
  8
_1-2_
  6
CONTINUOUS
 62
    6
 10
219.8519062910168
 20
143.13891682359946
 11
219.8519062910168
 21
137.13891682359946
  0
LINE
  8
_1-2_
  6
CONTINUOUS
 62
    6
 10
217.8519062910168
 20
143.13891682359946
 11
217.8519062910168
 21
137.13891682359946
  0
LINE
  8
_1-2_
  6
CONTINUOUS
 62
    6
 10
217.8519062910168
 20
143.13891682359946
 11
219.8519062910168
 21
143.13891682359946
  0
LINE
  8
_1-2_
  6
CONTINUOUS
 62
    6
 10
217.3519062910168
 20
137.13891682359946
 11
227.8519062910168
 21
137.13891682359946
  0
LINE
  8
_1-1_
  6
CONTINUOUS
 62
    4
 10
178.3519062910168
 20
156.13891682359946
 11
193.3519062910168
 21
156.13891682359946
  0
LINE
  8
_1-1_
  6
CONTINUOUS
 62
    4
 10
178.3519062910168
 20
156.13891682359946
 11
180.28375794359494
 21
156.65655491380451
  0
LINE
  8
_1-1_
  6
CONTINUOUS
 62
    4
 10
178.3519062910168
 20
156.13891682359946
 11
180.28375794359494
 21
155.6212787333944
  0
LINE
  8
_1-1_
  6
CONTINUOUS
 62
    4
 10
193.3519062910168
 20
156.13891682359946
 11
191.42005463843867
 21
156.65655491380451
  0
LINE
  8
_1-1_
  6
CONTINUOUS
 62
    4
 10
193.3519062910168
 20
156.13891682359946
 11
191.42005463843867
 21
155.6212787333944
  0
LINE
  8
_1-1_
  6
CONTINUOUS
 62
    4
 10
178.3519062910168
 20
156.13891682359946
 11
178.3519062910168
 21
166.13891682359946
  0
LINE
  8
_1-1_
  6
CONTINUOUS
 62
    4
 10
193.3519062910168
 20
156.13891682359946
 11
193.3519062910168
 21
166.13891682359946
  0
TEXT
  8
_1-1_
 62
    7
 10
184.2269062910168
 20
156.63891682359946
 40
3
 41
1
 50
0
  1
15
  0
LINE
  8
_1-1_
  6
CONTINUOUS
 62
    4
 10
181.8519062910168
 20
188.63891682359946
 11
174.8519062910168
 21
188.63891682359946
  0
LINE
  8
_1-1_
  6
CONTINUOUS
 62
    4
 10
181.8519062910168
 20
188.63891682359946
 11
179.92005463843867
 21
188.12127873339443
  0
LINE
  8
_1-1_
  6
CONTINUOUS
 62
    4
 10
181.8519062910168
 20
188.63891682359946
 11
179.92005463843867
 21
189.15655491380448
  0
LINE
  8
_1-1_
  6
CONTINUOUS
 62
    4
 10
174.8519062910168
 20
188.63891682359946
 11
176.78375794359494
 21
188.12127873339443
  0
LINE
  8
_1-1_
  6
CONTINUOUS
 62
    4
 10
174.8519062910168
 20
188.63891682359946
 11
176.78375794359494
 21
189.15655491380451
  0
LINE
  8
_1-1_
  6
CONTINUOUS
 62
    4
 10
181.8519062910168
 20
188.63891682359946
 11
181.8519062910168
 21
178.63891682359946
  0
LINE
  8
_1-1_
  6
CONTINUOUS
 62
    4
 10
174.8519062910168
 20
188.63891682359946
 11
174.8519062910168
 21
178.63891682359946
  0
TEXT
  8
_1-1_
 62
    7
 10
177.6019062910168
 20
189.13891682359946
 40
3
 41
1
 50
0
  1
7
  0
LINE
  8
_1-1_
  6
CONTINUOUS
 62
    4
 10
180.3519062910168
 20
183.53891682359946
 11
176.3519062910168
 21
183.53891682359946
  0
TEXT
  8
_1-1_
 62
    7
 10
177.6019062910168
 20
184.03891682359946
 40
3
 41
1
 50
0
  1
4
  0
LINE
  8
_1-1_
  6
CONTINUOUS
 62
    4
 10
176.3519062910168
 20
183.53891682359946
 11
176.3519062910168
 21
178.63891682359946
  0
LINE
  8
_1-1_
  6
CONTINUOUS
 62
    4
 10
180.3519062910168
 20
183.53891682359946
 11
180.3519062910168
 21
178.63891682359946
  0
LINE
  8
_1-1_
  6
CONTINUOUS
 62
    4
 10
180.3519062910168
 20
183.53891682359946
 11
179.0602092379128
 21
183.88502600584434
  0
LINE
  8
_1-1_
  6
CONTINUOUS
 62
    4
 10
180.3519062910168
 20
183.53891682359946
 11
179.03338514793563
 21
183.18562014810749
  0
LINE
  8
_1-1_
  6
CONTINUOUS
 62
    4
 10
176.3519062910168
 20
183.53891682359946
 11
177.75999024593597
 21
183.91621178219526
  0
LINE
  8
_1-1_
  6
CONTINUOUS
 62
    4
 10
176.3519062910168
 20
183.53891682359946
 11
177.76280809830183
 21
183.16086682373782
  0
LINE
  8
_1-1_
  6
CONTINUOUS
 62
    4
 10
208.3519062910168
 20
176.53891682359946
 11
198.3519062910168
 21
176.53891682359946
  0
LINE
  8
_1-1_
  6
CONTINUOUS
 62
    4
 10
226.75190629101681
 20
158.63891682359946
 11
218.75190629101681
 21
158.63891682359946
  0
LINE
  8
_1-1_
  6
CONTINUOUS
 62
    4
 10
226.75190629101681
 20
158.63891682359946
 11
224.82005463843868
 21
158.1212787333944
  0
LINE
  8
_1-1_
  6
CONTINUOUS
 62
    4
 10
226.75190629101681
 20
158.63891682359946
 11
224.82005463843868
 21
159.15655491380451
  0
LINE
  8
_1-1_
  6
CONTINUOUS
 62
    4
 10
218.75190629101681
 20
158.63891682359946
 11
220.68375794359494
 21
158.1212787333944
  0
LINE
  8
_1-1_
  6
CONTINUOUS
 62
    4
 10
218.75190629101681
 20
158.63891682359946
 11
220.68375794359494
 21
159.15655491380451
  0
LINE
  8
_1-1_
  6
CONTINUOUS
 62
    4
 10
226.75190629101681
 20
158.63891682359946
 11
226.75190629101681
 21
148.63891682359946
  0
LINE
  8
_1-1_
  6
CONTINUOUS
 62
    4
 10
218.75190629101681
 20
158.63891682359946
 11
218.75190629101681
 21
148.63891682359946
  0
TEXT
  8
_1-1_
 62
    7
 10
222.00190629101681
 20
159.13891682359946
 40
3
 41
1
 50
0
  1
8
  0
LINE
  8
_1-1_
  6
CONTINUOUS
 62
    4
 10
208.3519062910168
 20
137.13891682359946
 11
207.83426820081175
 21
135.20706517102133
  0
LINE
  8
_1-1_
  6
CONTINUOUS
 62
    4
 10
208.3519062910168
 20
137.13891682359946
 11
208.86954438122186
 21
135.20706517102133
  0
LINE
  8
_1-1_
  6
CONTINUOUS
 62
    4
 10
208.3519062910168
 20
137.13891682359946
 11
198.3519062910168
 21
137.13891682359946
  0
LINE
  8
_1-1_
  6
CONTINUOUS
 62
    4
 10
208.3519062910168
 20
137.13891682359946
 11
208.3519062910168
 21
143.13891682359946
  0
LINE
  8
_1-1_
  6
CONTINUOUS
 62
    4
 10
208.3519062910168
 20
137.13891682359946
 11
207.83426820081175
 21
139.07076847617759
  0
LINE
  8
_1-1_
  6
CONTINUOUS
 62
    4
 10
208.3519062910168
 20
137.13891682359946
 11
208.86954438122186
 21
139.07076847617759
  0
LINE
  8
_1-1_
  6
CONTINUOUS
 62
    4
 10
208.3519062910168
 20
143.13891682359946
 11
207.83426820081175
 21
141.20706517102133
  0
LINE
  8
_1-1_
  6
CONTINUOUS
 62
    4
 10
208.3519062910168
 20
143.13891682359946
 11
208.86954438122186
 21
141.20706517102133
  0
LINE
  8
_1-1_
  6
CONTINUOUS
 62
    4
 10
208.3519062910168
 20
143.13891682359946
 11
198.3519062910168
 21
143.13891682359946
  0
TEXT
  8
_1-1_
 62
    7
 10
207.8519062910168
 20
139.38891682359946
 40
3
 41
1
 50
90
  1
6
  0
LINE
  8
_1-1_
  6
CONTINUOUS
 62
    4
 10
208.3519062910168
 20
143.13891682359946
 11
207.83426820081178
 21
145.07076847617759
  0
LINE
  8
_1-1_
  6
CONTINUOUS
 62
    4
 10
208.3519062910168
 20
143.13891682359946
 11
208.86954438122186
 21
145.07076847617759
  0
LINE
  8
_1-2_
  6
CONTINUOUS
 62
    6
 10
196.8519062910168
 20
147.63891682359946
 11
196.8519062910168
 21
148.13891682359946
  0
LINE
  8
_1-2_
  6
CONTINUOUS
 62
    6
 10
189.8519062910168
 20
147.63891682359946
 11
189.8519062910168
 21
148.13891682359946
  0
LINE
  8
_1-2_
  6
CONTINUOUS
 62
    6
 10
189.8519062910168
 20
148.13891682359946
 11
196.8519062910168
 21
148.13891682359946
  0
LINE
  8
_1-2_
  6
CONTINUOUS
 62
    6
 10
189.8519062910168
 20
147.63891682359946
 11
191.3519062910168
 21
147.63891682359946
  0
LINE
  8
_1-2_
  6
CONTINUOUS
 62
    6
 10
195.3519062910168
 20
147.63891682359946
 11
196.8519062910168
 21
147.63891682359946
  0
LINE
  8
_1-2_
  6
CONTINUOUS
 62
    6
 10
181.8519062910168
 20
147.63891682359946
 11
181.8519062910168
 21
148.13891682359946
  0
LINE
  8
_1-2_
  6
CONTINUOUS
 62
    6
 10
174.8519062910168
 20
147.63891682359946
 11
174.8519062910168
 21
148.13891682359946
  0
LINE
  8
_1-2_
  6
CONTINUOUS
 62
    6
 10
174.8519062910168
 20
148.13891682359946
 11
181.8519062910168
 21
148.13891682359946
  0
LINE
  8
_1-2_
  6
CONTINUOUS
 62
    6
 10
174.8519062910168
 20
147.63891682359946
 11
176.3519062910168
 21
147.63891682359946
  0
LINE
  8
_1-2_
  6
CONTINUOUS
 62
    6
 10
180.3519062910168
 20
147.63891682359946
 11
181.8519062910168
 21
147.63891682359946
  0
ARC
  8
_1-2_
  6
CONTINUOUS
 62
    6
 10
219.25190629101681
 20
147.63891682359946
 40
0.5
 50
90
 51
180
  0
LINE
  8
_1-2_
  6
CONTINUOUS
 62
    6
 10
219.25190629101681
 20
148.13891682359946
 11
226.75190629101681
 21
148.13891682359946
  0
LINE
  8
_1-2_
  6
CONTINUOUS
 62
    6
 10
226.75190629101681
 20
148.13891682359946
 11
226.75190629101681
 21
147.63891682359946
  0
LINE
  8
_1-2_
  6
CONTINUOUS
 62
    6
 10
219.25190629101681
 20
147.63891682359946
 11
226.75190629101681
 21
147.63891682359946
  0
LINE
  8
_1-1_
  6
CONTINUOUS
 62
    4
 10
208.3519062910168
 20
148.13891682359946
 11
198.3519062910168
 21
148.13891682359946
  0
LINE
  8
_1-2_
  6
CONTINUOUS
 62
    6
 10
176.3519062910168
 20
143.13891682359946
 11
176.3519062910168
 21
148.13891682359946
  0
LINE
  8
_1-2_
  6
CONTINUOUS
 62
    6
 10
180.3519062910168
 20
143.13891682359946
 11
180.3519062910168
 21
148.13891682359946
  0
LINE
  8
_1-2_
  6
CONTINUOUS
 62
    6
 10
191.3519062910168
 20
143.13891682359946
 11
191.3519062910168
 21
148.13891682359946
  0
LINE
  8
_1-2_
  6
CONTINUOUS
 62
    6
 10
195.3519062910168
 20
143.13891682359946
 11
195.3519062910168
 21
148.13891682359946
  0
LINE
  8
_1-2_
  6
CONTINUOUS
 62
    6
 10
219.25190629101681
 20
148.13891682359946
 11
219.25190629101681
 21
143.13891682359946
  0
LINE
  8
_1-2_
  6
CONTINUOUS
 62
    6
 10
218.75190629101681
 20
147.63891682359946
 11
218.75190629101681
 21
143.13891682359946
  0
LINE
  8
_1-1_
  6
CONTINUOUS
 62
    4
 10
208.3519062910168
 20
148.13891682359946
 11
207.83426820081178
 21
146.20706517102133
  0
LINE
  8
_1-1_
  6
CONTINUOUS
 62
    4
 10
208.3519062910168
 20
148.13891682359946
 11
208.86954438122186
 21
146.20706517102133
  0
LINE
  8
_1-1_
  6
CONTINUOUS
 62
    4
 10
208.3519062910168
 20
143.13891682359946
 11
208.3519062910168
 21
148.13891682359946
  0
TEXT
  8
_1-1_
 62
    7
 10
207.8519062910168
 20
144.63891682359946
 40
3
 41
1
 50
89.999999999999986
  1
5
  0
LINE
  8
_1-2_
  6
CONTINUOUS
 62
    6
 10
197.3519062910168
 20
111.13891682359946
 11
174.3519062910168
 21
111.13891682359946
  0
LINE
  8
_1-2_
  6
CONTINUOUS
 62
    6
 10
217.3519062910168
 20
111.13891682359946
 11
227.8519062910168
 21
111.13891682359946
  0
LINE
  8
_1-1_
  6
CONTINUOUS
 62
    4
 10
208.3519062910168
 20
111.13891682359946
 11
207.83426820081175
 21
113.07076847617759
  0
LINE
  8
_1-1_
  6
CONTINUOUS
 62
    4
 10
208.3519062910168
 20
111.13891682359946
 11
208.86954438122186
 21
113.07076847617759
  0
LINE
  8
_1-1_
  6
CONTINUOUS
 62
    4
 10
208.3519062910168
 20
111.13891682359946
 11
198.3519062910168
 21
111.13891682359946
  0
LINE
  8
_1-1_
  6
CONTINUOUS
 62
    4
 10
174.3519062910168
 20
100.13891682359946
 11
197.3519062910168
 21
100.13891682359946
  0
LINE
  8
_1-1_
  6
CONTINUOUS
 62
    4
 10
174.3519062910168
 20
100.13891682359946
 11
176.28375794359494
 21
100.6565549138045
  0
LINE
  8
_1-1_
  6
CONTINUOUS
 62
    4
 10
174.3519062910168
 20
100.13891682359946
 11
176.28375794359494
 21
99.621278733394419
  0
LINE
  8
_1-1_
  6
CONTINUOUS
 62
    4
 10
197.3519062910168
 20
100.13891682359946
 11
195.42005463843867
 21
100.6565549138045
  0
LINE
  8
_1-1_
  6
CONTINUOUS
 62
    4
 10
197.3519062910168
 20
100.13891682359946
 11
195.42005463843867
 21
99.621278733394419
  0
LINE
  8
_1-1_
  6
CONTINUOUS
 62
    4
 10
174.3519062910168
 20
100.13891682359946
 11
174.3519062910168
 21
110.13891682359946
  0
LINE
  8
_1-1_
  6
CONTINUOUS
 62
    4
 10
197.3519062910168
 20
100.13891682359946
 11
197.3519062910168
 21
110.13891682359946
  0
TEXT
  8
_1-1_
 62
    7
 10
184.2269062910168
 20
100.63891682359946
 40
3
 41
1
 50
0
  1
23
  0
LINE
  8
_1-1_
  6
CONTINUOUS
 62
    4
 10
217.3519062910168
 20
100.13891682359946
 11
227.8519062910168
 21
100.13891682359946
  0
LINE
  8
_1-1_
  6
CONTINUOUS
 62
    4
 10
217.3519062910168
 20
100.13891682359946
 11
219.28375794359494
 21
100.6565549138045
  0
LINE
  8
_1-1_
  6
CONTINUOUS
 62
    4
 10
217.3519062910168
 20
100.13891682359946
 11
219.28375794359494
 21
99.621278733394419
  0
LINE
  8
_1-1_
  6
CONTINUOUS
 62
    4
 10
227.8519062910168
 20
100.13891682359946
 11
225.92005463843867
 21
100.6565549138045
  0
LINE
  8
_1-1_
  6
CONTINUOUS
 62
    4
 10
227.8519062910168
 20
100.13891682359946
 11
225.92005463843867
 21
99.621278733394419
  0
LINE
  8
_1-1_
  6
CONTINUOUS
 62
    4
 10
217.3519062910168
 20
100.13891682359946
 11
217.3519062910168
 21
110.13891682359946
  0
LINE
  8
_1-1_
  6
CONTINUOUS
 62
    4
 10
227.8519062910168
 20
100.13891682359946
 11
227.8519062910168
 21
110.13891682359946
  0
TEXT
  8
_1-1_
 62
    7
 10
219.2269062910168
 20
100.63891682359946
 40
3
 41
1
 50
0
  1
10.5
  0
LINE
  8
_1-2_
  6
CONTINUOUS
 62
    6
 10
174.3519062910168
 20
137.13891682359946
 11
174.3519062910168
 21
111.13891682359946
  0
LINE
  8
_1-2_
  6
CONTINUOUS
 62
    6
 10
197.3519062910168
 20
137.13891682359946
 11
197.3519062910168
 21
111.13891682359946
  0
LINE
  8
_1-1_
  6
CONTINUOUS
 62
    4
 10
208.3519062910168
 20
111.13891682359946
 11
208.3519062910168
 21
137.13891682359946
  0
LINE
  8
_1-2_
  6
CONTINUOUS
 62
    6
 10
217.3519062910168
 20
137.13891682359946
 11
217.3519062910168
 21
111.13891682359946
  0
LINE
  8
_1-2_
  6
CONTINUOUS
 62
    6
 10
227.8519062910168
 20
137.13891682359946
 11
227.8519062910168
 21
111.13891682359946
  0
LINE
  8
_1-2_
  6
DASHED1
 62
    4
 10
192.8519062910168
 20
124.63891682359946
 11
192.8519062910168
 21
128.63891682359946
  0
LINE
  8
_1-2_
  6
DASHED1
 62
    4
 10
178.8519062910168
 20
124.63891682359946
 11
178.8519062910168
 21
128.63891682359946
  0
LINE
  8
_1-2_
  6
DASHED1
 62
    4
 10
178.8519062910168
 20
124.63891682359946
 11
192.8519062910168
 21
124.63891682359946
  0
LINE
  8
_1-2_
  6
DASHED1
 62
    4
 10
178.8519062910168
 20
128.63891682359946
 11
192.8519062910168
 21
128.63891682359946
  0
TEXT
  8
_1-1_
 62
    7
 10
207.8519062910168
 20
123.38891682359946
 40
3
 41
1
 50
90
  1
26
  0
TEXT
  8
_0-1_
 62
    7
 10
114.39779005524861
 20
32.013812154696154
 40
4
 41
1
 50
0
  1
同一形状品：SQT13150MF,SQT23150MF
  0
TEXT
  8
_0-1_
 62
    7
 10
183.54696132596683
 20
14.842541436464103
 40
4
 41
1
 50
0
  1
SQT13150MF
  0
LINE
  8
_1-1_
  6
CONTINUOUS
 62
    4
 10
193.8744349573079
 20
148.1368658965344
 11
203.19008159033672
 21
164.27203917029829
  0
LINE
  8
_1-1_
  6
CONTINUOUS
 62
    4
 10
193.8744349573079
 20
148.1368658965344
 11
194.39207304751292
 21
150.06871754911253
  0
LINE
  8
_1-1_
  6
CONTINUOUS
 62
    4
 10
193.8744349573079
 20
148.1368658965344
 11
195.28864851968098
 21
149.55107945890751
  0
TEXT
  8
_1-1_
 62
    4
 10
203.74686087393269
 20
164.70843797086891
 40
2.5
 41
1
 50
0
  1
端子0.5t銅＋スズメッキ
  0
LINE
  8
_1-1_
  6
CONTINUOUS
 62
    4
 10
203.19008159033672
 20
164.27203917029829
 11
233.18784530386739
 21
164.27203917029829
  0
TEXT
  8
_1-2_
 62
    7
 10
183.08539794267574
 20
125.37376069283422
 40
2.5
 41
1
 50
0
  1
型式
  0
LINE
  8
_1-1_
  6
CONTINUOUS
 62
    4
 10
208.3519062910168
 20
172.53891682359946
 11
198.3519062910168
 21
172.53891682359946
  0
LINE
  8
_1-1_
  6
CONTINUOUS
 62
    4
 10
208.3519062910168
 20
172.53891682359946
 11
208.3519062910168
 21
176.53891682359946
  0
LINE
  8
_1-1_
  6
CONTINUOUS
 62
    4
 10
208.3519062910168
 20
172.53891682359946
 11
207.90308798898451
 21
174.21392953015072
  0
LINE
  8
_1-1_
  6
CONTINUOUS
 62
    4
 10
208.3519062910168
 20
172.53891682359946
 11
208.77761620391826
 21
174.12768784783339
  0
LINE
  8
_1-1_
  6
CONTINUOUS
 62
    4
 10
208.3519062910168
 20
176.53891682359946
 11
208.76649604882641
 21
174.99164678315634
  0
LINE
  8
_1-1_
  6
CONTINUOUS
 62
    4
 10
208.3519062910168
 20
176.53891682359946
 11
207.93508703204122
 21
174.98332617152943
  0
TEXT
  8
_1-1_
 62
    7
 10
207.8519062910168
 20
173.49815091954576
 40
3
 41
1
 50
90
  1
4
  0
ENDSEC
  0
EOF
