  0
SECTION
  2
HEADER
  9
$ACADVER
  1
AC1009
  9
$INSBASE
 10
0
 20
0
 30
0
  9
$EXTMIN
 10
0
 20
0
  9
$EXTMAX
 10
420
 20
297
  9
$LIMMIN
 10
0
 20
0
  9
$LIMMAX
 10
420
 20
297
  9
$LTSCALE
 40
1
  0
ENDSEC
  0
SECTION
  2
TABLES
  0
TABLE
  2
LTYPE
 70
     9
  0
LTYPE
  2
CONTINUOUS
 70
    64
  3
実線
 72
    65
 73
     0
 40
0.0
  0
LTYPE
  2
DASHED1
 70
    64
  3
--  --  --  --  --  --  --  --  
 72
    65
 73
     2
 40
2.5
 49
1.25
 49
-1.25
  0
LTYPE
  2
DASHED2
 70
    64
  3
----    ----    ----    ----    
 72
    65
 73
     2
 40
5.0
 49
2.5
 49
-2.5
  0
LTYPE
  2
DASHED3
 70
    64
  3
------  ------  ------  ------  
 72
    65
 73
     2
 40
5.0
 49
3.75
 49
-1.25
  0
LTYPE
  2
CENTER1
 70
    64
  3
----- - ----- - ----- - ----- - 
 72
    65
 73
     4
 40
10.0
 49
6.25
 49
-1.25
 49
1.25
 49
-1.25
  0
LTYPE
  2
CENTER2
 70
    64
  3
----------  --  ----------  --  
 72
    65
 73
     4
 40
20.0
 49
12.5
 49
-2.5
 49
2.5
 49
-2.5
  0
LTYPE
  2
PHANTOM1
 70
    64
  3
--- - - --- - - --- - - --- - - 
 72
    65
 73
     6
 40
10.0
 49
3.25
 49
-1.25
 49
1.25
 49
-1.25
 49
1.25
 49
-1.25
  0
LTYPE
  2
PHANTOM2
 70
    64
  3
--------  -  -  --------  -  -  
 72
    65
 73
     6
 40
20.0
 49
10.0
 49
-2.5
 49
1.25
 49
-2.5
 49
1.25
 49
-2.5
  0
LTYPE
  2
DOT
 70
    64
  3
-   -   -   -   -   -   -   -   
 72
    65
 73
     2
 40
2.5
 49
0.625
 49
-1.875
  0
LTYPE
  2
DUMMY
 70
    64
  3
ダミー
 72
    65
 73
     0
 40
0.0
  0
LTYPE
  2
RAND1
 70
    64
  3
ランダム線1
 72
    65
 73
     4
 40
10.0
 49
1.0
 49
-2.0
 49
3.0
 49
-4.0
  0
LTYPE
  2
RAND2
 70
    64
  3
ランダム線2
 72
    65
 73
     4
 40
14.0
 49
2.0
 49
-3.0
 49
4.0
 49
-5.0
  0
LTYPE
  2
RAND3
 70
    64
  3
ランダム線3
 72
    65
 73
     4
 40
18.0
 49
3.0
 49
-4.0
 49
5.0
 49
-6.0
  0
LTYPE
  2
RAND4
 70
    64
  3
ランダム線4
 72
    65
 73
     4
 40
22.0
 49
4.0
 49
-5.0
 49
6.0
 49
-7.0
  0
LTYPE
  2
RAND5
 70
    64
  3
ランダム線5
 72
    65
 73
     4
 40
26.0
 49
5.0
 49
-6.0
 49
7.0
 49
-8.0
  0
LTYPE
  2
LONG1
 70
    64
  3
----------  --  ----------  --  
 72
    65
 73
     4
 40
40.0
 49
32.5
 49
-2.5
 49
2.5
 49
-2.5
  0
LTYPE
  2
LONG2
 70
    64
  3
--------  -  -  --------  -  -  
 72
    65
 73
     6
 40
40.0
 49
30.0
 49
-2.5
 49
1.25
 49
-2.5
 49
1.25
 49
-2.5
  0
LTYPE
  2
LONG3
 70
    64
  3
+++++++++++++++..+++++++++++++++
 72
    65
 73
     2
 40
40.0
 49
37.5
 49
-2.5
  0
LTYPE
  2
LONG4
 70
    64
  3
+++++++++++++++..+++++++++++++++
 72
    65
 73
     2
 40
80.0
 49
75.0
 49
-5.0
  0
LTYPE
  2
LONG5
 70
    64
  3
----------  --  ----------  --  
 72
    65
 73
     4
 40
60.0
 49
37.5
 49
-7.5
 49
7.5
 49
-7.5
  0
LTYPE
  2
dashed
 70
   64
  3
-------   -------------   ------
 72
   65
 73
    2
 40
7.5
 49
6
 49
-1.5
  0
LTYPE
  2
dashed_spaced
 70
   64
  3
----        --------        ----
 72
   65
 73
    2
 40
12
 49
6
 49
-6
  0
LTYPE
  2
long_dashed_dotted
 70
   64
  3
------------- --- --------------
 72
   65
 73
    4
 40
15.25
 49
12
 49
-1.5
 49
0.25
 49
-1.5
  0
LTYPE
  2
long_dashed_double-dotted
 70
   64
  3
----------- --- --- ------------
 72
   65
 73
    6
 40
17
 49
12
 49
-1.5
 49
0.25
 49
-1.5
 49
0.25
 49
-1.5
  0
LTYPE
  2
long_dashed_triplicate-dotted
 70
   64
  3
--------- --- --- --- ----------
 72
   65
 73
    8
 40
18.75
 49
12
 49
-1.5
 49
0.25
 49
-1.5
 49
0.25
 49
-1.5
 49
0.25
 49
-1.5
  0
LTYPE
  2
dotted
 70
   64
  3
   -       -       -       -    
 72
   65
 73
    2
 40
1.75
 49
0.25
 49
-1.5
  0
LTYPE
  2
chain
 70
   64
  3
-------------- -- --------------
 72
   65
 73
    4
 40
18.5
 49
12
 49
-1.5
 49
3.5
 49
-1.5
  0
LTYPE
  2
chain_double_dash
 70
   64
  3
------------ -- -- -------------
 72
   65
 73
    6
 40
23.5
 49
12
 49
-1.5
 49
3.5
 49
-1.5
 49
3.5
 49
-1.5
  0
LTYPE
  2
dashed_dotted
 70
   64
  3
-----------     -     ----------
 72
   65
 73
    4
 40
9.25
 49
6
 49
-1.5
 49
0.25
 49
-1.5
  0
LTYPE
  2
double-dashed_dotted
 70
   64
  3
------   -----------   -   -----
 72
   65
 73
    6
 40
16.75
 49
6
 49
-1.5
 49
6
 49
-1.5
 49
0.25
 49
-1.5
  0
LTYPE
  2
dashed_double-dotted
 70
   64
  3
---------    -    -    ---------
 72
   65
 73
    6
 40
11
 49
6
 49
-1.5
 49
0.25
 49
-1.5
 49
0.25
 49
-1.5
  0
LTYPE
  2
double-dashed_double-dotted
 70
   64
  3
-----   ---------   -   -   ----
 72
   65
 73
    8
 40
18.5
 49
6
 49
-1.5
 49
6
 49
-1.5
 49
0.25
 49
-1.5
 49
0.25
 49
-1.5
  0
LTYPE
  2
dashed_triplicate-dotted
 70
   64
  3
-------    -    -    -    ------
 72
   65
 73
    8
 40
12.75
 49
6
 49
-1.5
 49
0.25
 49
-1.5
 49
0.25
 49
-1.5
 49
0.25
 49
-1.5
  0
LTYPE
  2
double-dashed_triplicate-dotted
 70
   64
  3
-----  ---------  -  -  -  -----
 72
   65
 73
   10
 40
20.25
 49
6
 49
-1.5
 49
6
 49
-1.5
 49
0.25
 49
-1.5
 49
0.25
 49
-1.5
 49
0.25
 49
-1.5
  0
LTYPE
  2
undefined
 70
   64
  3
--------------------------------
 72
   65
 73
    0
 40
0
  0
ENDTAB
  0
TABLE
  2
STYLE
  5
3
100
AcDbSymbolTable
 70
     1
  0
STYLE
  5
10
100
AcDbSymbolTableRecord
100
AcDbTextStyleTableRecord
  2
STANDARD
 70
     0
 40
0.0
 41
1.0
 50
0.0
 71
     0
 42
0.2
  3
txt
  4
bigfont.shx
  0
STYLE
  5
26
100
AcDbSymbolTableRecord
100
AcDbTextStyleTableRecord
  2
TATEGAKI
 70
    68
 40
0.0
 41
1.0
 50
0.0
 71
     0
 42
1.0
  3
txt
  4
bigfont.shx
  0
ENDTAB
  0
TABLE
  2
LAYER
 70
    5
  0
LAYER
  2
_0-1_
 70
   64
 62
    7
  6
CONTINUOUS
  0
LAYER
  2
_1-1_
 70
   64
 62
    7
  6
CONTINUOUS
  0
LAYER
  2
_1-2_
 70
   64
 62
    7
  6
CONTINUOUS
  0
LAYER
  2
_1-3_ADD_LINE
 70
   64
 62
    7
  6
CONTINUOUS
  0
LAYER
  2
ADD_LINE
 70
   64
 62
    7
  6
CONTINUOUS
  0
ENDTAB
  0
ENDSEC
  0
SECTION
  2
BLOCKS
  0
ENDSEC
  0
SECTION
  2
ENTITIES
  0
LINE
  8
_0-1_
  6
CONTINUOUS
 62
    3
 10
109.91378294262526
 20
10.082039243805809
 11
109.59104797587588
 21
10.082039243805809
  0
LINE
  8
_0-1_
  6
CONTINUOUS
 62
    3
 10
109.59104797587588
 20
10.082039243805809
 11
109.59104797587588
 21
280.35561316697232
  0
LINE
  8
_0-1_
  6
CONTINUOUS
 62
    3
 10
289.74820746365236
 20
280.35561316697232
 11
289.74820746365236
 21
10.082039243805809
  0
LINE
  8
_0-1_
  6
CONTINUOUS
 62
    3
 10
109.59104797587588
 20
280.35561316697232
 11
289.74820746365236
 21
280.35561316697232
  0
LINE
  8
_0-1_
  6
CONTINUOUS
 62
    3
 10
289.74820746365236
 20
10.082039243805809
 11
109.59104797587588
 21
10.082039243805809
  0
LINE
  8
_0-1_
  6
CONTINUOUS
 62
    3
 10
289.74820746365236
 20
25.082039243805809
 11
109.59104797587588
 21
25.082039243805809
  0
LINE
  8
_0-1_
  6
CONTINUOUS
 62
    3
 10
169.59104797587588
 20
10.082039243805809
 11
169.59104797587588
 21
25.082039243805809
  0
LINE
  8
_0-1_
  6
CONTINUOUS
 62
    3
 10
229.59104797587588
 20
10.082039243805809
 11
229.59104797587588
 21
25.082039243805809
  0
TEXT
  8
_0-1_
 62
    7
 10
111.53633893959282
 20
21.577207655443985
 40
2
 41
1
 50
0
  1
ＴＩＴＬＥ
  0
TEXT
  8
_0-1_
 62
    7
 10
171.46168920362626
 20
21.325420469460653
 40
2
 41
1
 50
0
  1
ＭＯＤＥＬ
  0
TEXT
  8
_0-1_
 62
    7
 10
236.24586551082081
 20
15.198940813772481
 40
4
 41
1
 50
0
  1
日伸制御機工株式会社
  0
TEXT
  8
_0-1_
 62
    7
 10
119.50276243093923
 20
14.378453038674053
 40
4
 41
1
 50
0
  1
スパークケンチャー
  0
ARC
  8
_1-2_
  6
CONTINUOUS
 62
    6
 10
198.25336488551753
 20
147.93696211697198
 40
0.5
 50
216.59041666293757
 51
281.36642136727284
  0
ARC
  8
_1-2_
  6
CONTINUOUS
 62
    6
 10
198.25336488551753
 20
148.93696211697198
 40
0.5
 50
216.59041666293757
 51
281.36642136727284
  0
ARC
  8
_1-2_
  6
CONTINUOUS
 62
    6
 10
197.45044769651608
 20
148.34087153022693
 40
0.5
 50
36.590416662937571
 51
101.36642136727282
  0
ARC
  8
_1-2_
  6
CONTINUOUS
 62
    6
 10
197.45044769651608
 20
147.34087153022693
 40
0.5
 50
36.590416662937571
 51
101.36642136727282
  0
LINE
  8
_1-2_
  6
CONTINUOUS
 62
    6
 10
197.3519062910168
 20
161.13891682359946
 11
197.3519062910168
 21
148.83106495266571
  0
LINE
  8
_1-2_
  6
CONTINUOUS
 62
    6
 10
197.3519062910168
 20
147.83106495266571
 11
197.3519062910168
 21
136.13891682359946
  0
LINE
  8
_1-2_
  6
CONTINUOUS
 62
    6
 10
198.3519062910168
 20
161.13891682359946
 11
198.3519062910168
 21
148.4467686945332
  0
LINE
  8
_1-2_
  6
CONTINUOUS
 62
    6
 10
198.3519062910168
 20
147.4467686945332
 11
198.3519062910168
 21
136.13891682359946
  0
LINE
  8
_1-1_
  6
CONTINUOUS
 62
    4
 10
221.8519062910168
 20
136.13891682359946
 11
221.33426820081178
 21
134.20706517102133
  0
LINE
  8
_1-1_
  6
CONTINUOUS
 62
    4
 10
221.8519062910168
 20
136.13891682359946
 11
222.36954438122186
 21
134.20706517102133
  0
LINE
  8
_1-1_
  6
CONTINUOUS
 62
    4
 10
221.8519062910168
 20
136.13891682359946
 11
211.8519062910168
 21
136.13891682359946
  0
LINE
  8
_1-1_
  6
CONTINUOUS
 62
    4
 10
221.8519062910168
 20
136.13891682359946
 11
221.8519062910168
 21
161.13891682359946
  0
LINE
  8
_1-1_
  6
CONTINUOUS
 62
    4
 10
221.8519062910168
 20
136.13891682359946
 11
221.33426820081178
 21
138.07076847617759
  0
LINE
  8
_1-1_
  6
CONTINUOUS
 62
    4
 10
221.8519062910168
 20
136.13891682359946
 11
222.36954438122186
 21
138.07076847617759
  0
LINE
  8
_1-1_
  6
CONTINUOUS
 62
    4
 10
221.8519062910168
 20
161.13891682359946
 11
221.33426820081178
 21
159.20706517102133
  0
LINE
  8
_1-1_
  6
CONTINUOUS
 62
    4
 10
221.8519062910168
 20
161.13891682359946
 11
222.36954438122186
 21
159.20706517102133
  0
LINE
  8
_1-1_
  6
CONTINUOUS
 62
    4
 10
221.8519062910168
 20
161.13891682359946
 11
211.8519062910168
 21
161.13891682359946
  0
TEXT
  8
_1-1_
 62
    7
 10
221.3519062910168
 20
146.13891682359946
 40
3
 41
1
 50
90
  1
300
  0
LINE
  8
_1-2_
  6
DASHED1
 62
    4
 10
195.16011309456087
 20
127.64163429216002
 11
195.16011309456087
 21
113.64163429216002
  0
LINE
  8
_1-2_
  6
DASHED1
 62
    4
 10
191.16011309456087
 20
127.64163429216002
 11
191.16011309456087
 21
113.64163429216002
  0
LINE
  8
_1-2_
  6
DASHED1
 62
    4
 10
191.16011309456087
 20
127.64163429216002
 11
195.16011309456087
 21
127.64163429216002
  0
LINE
  8
_1-2_
  6
DASHED1
 62
    4
 10
191.16011309456087
 20
113.64163429216002
 11
195.16011309456087
 21
113.64163429216002
  0
LINE
  8
_1-2_
  6
CONTINUOUS
 62
    6
 10
184.8519062910168
 20
136.13891682359946
 11
184.8519062910168
 21
101.13891682359946
  0
ARC
  8
_1-2_
  6
CONTINUOUS
 62
    6
 10
204.8519062910168
 20
206.13891682359946
 40
2.1499999999999999
 50
68.471095594428022
 51
291.52890440557201
  0
CIRCLE
  8
_1-2_
  6
CONTINUOUS
 62
    6
 10
192.8519062910168
 20
206.13891682359946
 40
8
  0
LINE
  8
_1-2_
  6
CONTINUOUS
 62
    6
 10
199.09690428941519
 20
211.13891682359946
 11
208.95335993853138
 21
210.1337570908816
  0
LINE
  8
_1-2_
  6
CONTINUOUS
 62
    6
 10
199.09690428941519
 20
201.13891682359946
 11
208.95335993853232
 21
202.14407655631743
  0
LINE
  8
_1-2_
  6
CONTINUOUS
 62
    6
 10
208.8519062910168
 20
208.13891682359946
 11
205.64089298291978
 21
208.13891682359946
  0
LINE
  8
_1-2_
  6
CONTINUOUS
 62
    6
 10
208.8519062910168
 20
204.13891682359946
 11
205.64089298291978
 21
204.13891682359946
  0
ARC
  8
_1-2_
  6
CONTINUOUS
 62
    6
 10
208.8519062910168
 20
203.13891682359946
 40
1
 50
270
 51
90
  0
ARC
  8
_1-2_
  6
CONTINUOUS
 62
    6
 10
208.8519062910168
 20
209.13891682359946
 40
1
 50
270
 51
90
  0
CIRCLE
  8
_1-2_
  6
CONTINUOUS
 62
    6
 10
192.8519062910168
 20
206.13891682359946
 40
7
  0
CIRCLE
  8
_1-2_
  6
CONTINUOUS
 62
    6
 10
187.8519062910168
 20
206.13891682359946
 40
0.5
  0
CIRCLE
  8
_1-2_
  6
CONTINUOUS
 62
    6
 10
197.8519062910168
 20
206.13891682359946
 40
0.5
  0
LINE
  8
_1-1_
  6
CONTINUOUS
 62
    4
 10
203.33162671146573
 20
204.61863724404839
 11
204.33162671146573
 21
206.35068805161725
  0
LINE
  8
_1-1_
  6
CONTINUOUS
 62
    4
 10
203.33162671146573
 20
204.61863724404839
 11
205.0636775190346
 21
205.61863724404839
  0
TEXT
  8
_1-1_
 62
    7
 10
210.22502759358323
 20
212.21914490735244
 40
3
 41
1
 50
45.000000000000078
  1
φ4.3
  0
LINE
  8
_1-1_
  6
CONTINUOUS
 62
    4
 10
217.87083342910867
 20
219.15784396169136
 11
203.33162671146573
 21
204.61863724404839
  0
LINE
  8
_1-1_
  6
CONTINUOUS
 62
    4
 10
220.8519062910168
 20
204.13891682359946
 11
220.8519062910168
 21
208.13891682359946
  0
LINE
  8
_1-1_
  6
CONTINUOUS
 62
    4
 10
220.8519062910168
 20
204.13891682359946
 11
220.33426820081175
 21
206.07076847617759
  0
LINE
  8
_1-1_
  6
CONTINUOUS
 62
    4
 10
220.8519062910168
 20
204.13891682359946
 11
221.36954438122186
 21
206.07076847617759
  0
LINE
  8
_1-1_
  6
CONTINUOUS
 62
    4
 10
220.8519062910168
 20
208.13891682359946
 11
220.33426820081175
 21
206.20706517102133
  0
LINE
  8
_1-1_
  6
CONTINUOUS
 62
    4
 10
220.8519062910168
 20
208.13891682359946
 11
221.36954438122186
 21
206.20706517102133
  0
LINE
  8
_1-1_
  6
CONTINUOUS
 62
    4
 10
220.8519062910168
 20
204.13891682359946
 11
210.8519062910168
 21
204.13891682359946
  0
LINE
  8
_1-1_
  6
CONTINUOUS
 62
    4
 10
220.8519062910168
 20
208.13891682359946
 11
210.8519062910168
 21
208.13891682359946
  0
TEXT
  8
_1-1_
 62
    7
 10
220.3519062910168
 20
205.38891682359946
 40
3
 41
1
 50
90
  1
4
  0
LINE
  8
_1-1_
  6
CONTINUOUS
 62
    4
 10
192.8519062910168
 20
186.90874820670919
 11
204.8519062910168
 21
186.90874820670919
  0
LINE
  8
_1-1_
  6
CONTINUOUS
 62
    4
 10
192.8519062910168
 20
186.90874820670919
 11
194.78375794359494
 21
187.42638629691425
  0
LINE
  8
_1-1_
  6
CONTINUOUS
 62
    4
 10
192.8519062910168
 20
186.90874820670919
 11
194.78375794359494
 21
186.39111011650414
  0
LINE
  8
_1-1_
  6
CONTINUOUS
 62
    4
 10
204.8519062910168
 20
186.90874820670919
 11
202.92005463843867
 21
187.42638629691425
  0
LINE
  8
_1-1_
  6
CONTINUOUS
 62
    4
 10
204.8519062910168
 20
186.90874820670919
 11
202.92005463843867
 21
186.39111011650414
  0
LINE
  8
_1-1_
  6
CONTINUOUS
 62
    4
 10
192.8519062910168
 20
186.90874820670919
 11
192.8519062910168
 21
196.90874820670919
  0
LINE
  8
_1-1_
  6
CONTINUOUS
 62
    4
 10
192.8519062910168
 20
182.09863862519458
 11
209.8519062910168
 21
182.09863862519458
  0
LINE
  8
_1-1_
  6
CONTINUOUS
 62
    4
 10
192.8519062910168
 20
182.09863862519458
 11
194.78375794359494
 21
182.61627671539964
  0
LINE
  8
_1-1_
  6
CONTINUOUS
 62
    4
 10
192.8519062910168
 20
182.09863862519458
 11
194.78375794359494
 21
181.58100053498953
  0
LINE
  8
_1-1_
  6
CONTINUOUS
 62
    4
 10
209.8519062910168
 20
182.09863862519458
 11
207.92005463843867
 21
182.61627671539964
  0
LINE
  8
_1-1_
  6
CONTINUOUS
 62
    4
 10
209.8519062910168
 20
182.09863862519458
 11
207.92005463843867
 21
181.58100053498953
  0
LINE
  8
_1-1_
  6
CONTINUOUS
 62
    4
 10
192.8519062910168
 20
182.09863862519458
 11
192.8519062910168
 21
192.09863862519458
  0
LINE
  8
_1-3_ADD_LINE
  6
CENTER1
 62
    7
 10
195.03112699188716
 20
206.13891682359946
 11
190.85000696612551
 21
206.13891682359946
  0
LINE
  8
_1-3_ADD_LINE
  6
CENTER1
 62
    7
 10
192.8519062910168
 20
204.35209310153681
 11
192.8519062910168
 21
207.89190855047462
  0
LINE
  8
_1-3_ADD_LINE
  6
CENTER1
 62
    7
 10
204.8519062910168
 20
204.46446819515387
 11
204.8519062910168
 21
207.89190855047462
  0
LINE
  8
_1-3_ADD_LINE
  6
CENTER1
 62
    7
 10
203.23450882593355
 20
206.13891682359946
 11
206.32482390040306
 21
206.13891682359946
  0
LINE
  8
_1-1_
  6
CONTINUOUS
 62
    4
 10
204.8519062910168
 20
186.90874820670919
 11
204.8519062910168
 21
200.58752746536484
  0
LINE
  8
_1-1_
  6
CONTINUOUS
 62
    4
 10
209.8519062910168
 20
182.09863862519458
 11
209.8519062910168
 21
201.70441988950276
  0
LINE
  8
_1-2_
  6
CONTINUOUS
 62
    6
 10
209.8519062910168
 20
101.13891682359946
 11
184.8519062910168
 21
101.13891682359946
  0
LINE
  8
_1-2_
  6
CONTINUOUS
 62
    6
 10
200.8519062910168
 20
136.13891682359946
 11
200.8519062910168
 21
101.13891682359946
  0
LINE
  8
_1-2_
  6
CONTINUOUS
 62
    6
 10
209.8519062910168
 20
105.13891682359946
 11
200.8519062910168
 21
105.13891682359946
  0
ARC
  8
_1-2_
  6
CONTINUOUS
 62
    6
 10
188.25336488551753
 20
147.93696211697198
 40
0.5
 50
216.59041666293757
 51
281.36642136727284
  0
ARC
  8
_1-2_
  6
CONTINUOUS
 62
    6
 10
188.25336488551753
 20
148.93696211697198
 40
0.5
 50
216.59041666293757
 51
281.36642136727284
  0
ARC
  8
_1-2_
  6
CONTINUOUS
 62
    6
 10
187.45044769651608
 20
148.34087153022693
 40
0.5
 50
36.590416662937571
 51
101.36642136727282
  0
ARC
  8
_1-2_
  6
CONTINUOUS
 62
    6
 10
187.45044769651608
 20
147.34087153022693
 40
0.5
 50
36.590416662937571
 51
101.36642136727282
  0
LINE
  8
_1-2_
  6
CONTINUOUS
 62
    6
 10
187.3519062910168
 20
161.13891682359946
 11
187.3519062910168
 21
148.83106495266571
  0
LINE
  8
_1-2_
  6
CONTINUOUS
 62
    6
 10
187.3519062910168
 20
147.83106495266571
 11
187.3519062910168
 21
136.13891682359946
  0
LINE
  8
_1-2_
  6
CONTINUOUS
 62
    6
 10
188.3519062910168
 20
161.13891682359946
 11
188.3519062910168
 21
148.4467686945332
  0
LINE
  8
_1-2_
  6
CONTINUOUS
 62
    6
 10
188.3519062910168
 20
147.4467686945332
 11
188.3519062910168
 21
136.13891682359946
  0
LINE
  8
_1-2_
  6
CONTINUOUS
 62
    6
 10
200.8519062910168
 20
136.13891682359946
 11
184.8519062910168
 21
136.13891682359946
  0
LINE
  8
_1-2_
  6
CONTINUOUS
 62
    6
 10
209.8519062910168
 20
105.13891682359946
 11
209.8519062910168
 21
101.13891682359946
  0
LINE
  8
_1-1_
  6
CONTINUOUS
 62
    4
 10
221.8519062910168
 20
101.13891682359946
 11
221.8519062910168
 21
136.13891682359946
  0
LINE
  8
_1-1_
  6
CONTINUOUS
 62
    4
 10
221.8519062910168
 20
101.13891682359946
 11
221.33426820081175
 21
103.07076847617759
  0
LINE
  8
_1-1_
  6
CONTINUOUS
 62
    4
 10
221.8519062910168
 20
101.13891682359946
 11
222.36954438122186
 21
103.07076847617759
  0
LINE
  8
_1-1_
  6
CONTINUOUS
 62
    4
 10
221.8519062910168
 20
101.13891682359946
 11
211.8519062910168
 21
101.13891682359946
  0
LINE
  8
_1-1_
  6
CONTINUOUS
 62
    4
 10
188.31788172049443
 20
157.94236256273484
 11
188.70592277354945
 21
159.90435750185779
  0
LINE
  8
_1-1_
  6
CONTINUOUS
 62
    4
 10
188.31788172049443
 20
157.94236256273484
 11
189.63493259971278
 21
159.4474794955843
  0
LINE
  8
_1-1_
  6
CONTINUOUS
 62
    4
 10
193.02866579719239
 20
167.6240582621798
 11
223.73986619900052
 21
167.6240582621798
  0
TEXT
  8
_1-1_
 62
    7
 10
194.00053922762936
 20
172.67780010045203
 40
3
 41
1
 50
0
  1
耐熱ビニール電線(赤)
  0
LINE
  8
_1-1_
  6
CONTINUOUS
 62
    4
 10
188.3519062910168
 20
158.11439599745819
 11
193.02866579719239
 21
167.6240582621798
  0
TEXT
  8
_1-1_
 62
    7
 10
194.70858642898568
 20
168.45555729816027
 40
3
 41
1
 50
0
  1
0.75mm
  0
TEXT
  8
_1-1_
 62
    4
 10
205.33861492739427
 20
169.88302121728807
 40
2
 41
1
 50
0
  1
2
  0
LINE
  8
_1-2_
  6
CONTINUOUS
 62
    6
 10
197.3519062910168
 20
161.13891682359946
 11
198.3519062910168
 21
161.13891682359946
  0
LINE
  8
_1-2_
  6
CONTINUOUS
 62
    6
 10
187.3519062910168
 20
161.13891682359946
 11
188.3519062910168
 21
161.13891682359946
  0
LINE
  8
_1-1_
  6
CONTINUOUS
 62
    4
 10
200.8519062910168
 20
222.09768960321446
 11
184.8519062910168
 21
222.09768960321446
  0
LINE
  8
_1-1_
  6
CONTINUOUS
 62
    4
 10
200.8519062910168
 20
222.09768960321446
 11
198.92005463843867
 21
221.58005151300944
  0
LINE
  8
_1-1_
  6
CONTINUOUS
 62
    4
 10
200.8519062910168
 20
222.09768960321446
 11
198.92005463843867
 21
222.61532769341949
  0
LINE
  8
_1-1_
  6
CONTINUOUS
 62
    4
 10
184.8519062910168
 20
222.09768960321446
 11
186.78375794359494
 21
221.58005151300944
  0
LINE
  8
_1-1_
  6
CONTINUOUS
 62
    4
 10
184.8519062910168
 20
222.09768960321446
 11
186.78375794359494
 21
222.61532769341949
  0
LINE
  8
_1-1_
  6
CONTINUOUS
 62
    4
 10
184.8519062910168
 20
222.09768960321446
 11
184.8519062910168
 21
209.15092918131592
  0
LINE
  8
_1-1_
  6
CONTINUOUS
 62
    4
 10
200.8519062910168
 20
222.09768960321446
 11
200.8519062910168
 21
208.92189854344551
  0
TEXT
  8
_1-1_
 62
    7
 10
194.6019062910168
 20
187.40874820670919
 40
3
 41
1
 50
0
  1
12±1
  0
TEXT
  8
_1-1_
 62
    7
 10
197.1019062910168
 20
182.59863862519458
 40
3
 41
1
 50
0
  1
17±1
  0
TEXT
  8
_0-1_
 62
    7
 10
183.54696132596683
 20
14.842541436464103
 40
4
 41
1
 50
0
  1
SQ21150NF
  0
TEXT
  8
_0-1_
 62
    7
 10
115.32596685082873
 20
33.870165745856355
 40
4
 41
1
 50
0
  1
同一形状品：SQ21150NF,SQ22150NF,SQ23150NF,SQ25050NF,SQ25150NF
  0
TEXT
  8
_1-1_
 62
    7
 10
191.2269062910168
 20
222.59768960321446
 40
3
 41
1
 50
0
  1
16
  0
TEXT
  8
_1-1_
 62
    7
 10
221.3519062910168
 20
116.94129834254144
 40
3
 41
1
 50
90
  1
35
  0
TEXT
  8
_1-2_
 62
    7
 10
191.89495696379566
 20
123.40814264050108
 40
2.5
 41
1
 50
-90
  1
型式
  0
LINE
  8
_1-1_
  6
CONTINUOUS
 62
    4
 10
216.8519062910168
 20
101.13891682359946
 11
216.8519062910168
 21
105.13891682359946
  0
LINE
  8
_1-1_
  6
CONTINUOUS
 62
    4
 10
216.8519062910168
 20
101.13891682359946
 11
211.8519062910168
 21
101.13891682359946
  0
LINE
  8
_1-1_
  6
CONTINUOUS
 62
    4
 10
216.8519062910168
 20
105.13891682359946
 11
211.8519062910168
 21
105.13891682359946
  0
TEXT
  8
_1-1_
 62
    7
 10
216.3519062910168
 20
102.38891682359946
 40
3
 41
1
 50
90
  1
4
  0
LINE
  8
_1-1_
  6
CONTINUOUS
 62
    4
 10
216.8519062910168
 20
101.13891682359946
 11
217.3022684082205
 21
102.81969112680795
  0
LINE
  8
_1-1_
  6
CONTINUOUS
 62
    4
 10
216.8519062910168
 20
101.13891682359946
 11
216.40553744680818
 21
102.80478802910179
  0
LINE
  8
_1-1_
  6
CONTINUOUS
 62
    4
 10
216.8519062910168
 20
105.13891682359946
 11
217.29809756017414
 21
103.47370833721067
  0
LINE
  8
_1-1_
  6
CONTINUOUS
 62
    4
 10
216.8519062910168
 20
105.13891682359946
 11
216.41369142674776
 21
103.50347668551549
  0
ENDSEC
  0
EOF
