  0
SECTION
  2
HEADER
  9
$ACADVER
  1
AC1009
  9
$INSBASE
 10
0
 20
0
 30
0
  9
$EXTMIN
 10
0
 20
0
  9
$EXTMAX
 10
420
 20
297
  9
$LIMMIN
 10
0
 20
0
  9
$LIMMAX
 10
420
 20
297
  9
$LTSCALE
 40
1
  0
ENDSEC
  0
SECTION
  2
TABLES
  0
TABLE
  2
LTYPE
 70
     9
  0
LTYPE
  2
CONTINUOUS
 70
    64
  3
実線
 72
    65
 73
     0
 40
0.0
  0
LTYPE
  2
DASHED1
 70
    64
  3
--  --  --  --  --  --  --  --  
 72
    65
 73
     2
 40
2.5
 49
1.25
 49
-1.25
  0
LTYPE
  2
DASHED2
 70
    64
  3
----    ----    ----    ----    
 72
    65
 73
     2
 40
5.0
 49
2.5
 49
-2.5
  0
LTYPE
  2
DASHED3
 70
    64
  3
------  ------  ------  ------  
 72
    65
 73
     2
 40
5.0
 49
3.75
 49
-1.25
  0
LTYPE
  2
CENTER1
 70
    64
  3
----- - ----- - ----- - ----- - 
 72
    65
 73
     4
 40
10.0
 49
6.25
 49
-1.25
 49
1.25
 49
-1.25
  0
LTYPE
  2
CENTER2
 70
    64
  3
----------  --  ----------  --  
 72
    65
 73
     4
 40
20.0
 49
12.5
 49
-2.5
 49
2.5
 49
-2.5
  0
LTYPE
  2
PHANTOM1
 70
    64
  3
--- - - --- - - --- - - --- - - 
 72
    65
 73
     6
 40
10.0
 49
3.25
 49
-1.25
 49
1.25
 49
-1.25
 49
1.25
 49
-1.25
  0
LTYPE
  2
PHANTOM2
 70
    64
  3
--------  -  -  --------  -  -  
 72
    65
 73
     6
 40
20.0
 49
10.0
 49
-2.5
 49
1.25
 49
-2.5
 49
1.25
 49
-2.5
  0
LTYPE
  2
DOT
 70
    64
  3
-   -   -   -   -   -   -   -   
 72
    65
 73
     2
 40
2.5
 49
0.625
 49
-1.875
  0
LTYPE
  2
DUMMY
 70
    64
  3
ダミー
 72
    65
 73
     0
 40
0.0
  0
LTYPE
  2
RAND1
 70
    64
  3
ランダム線1
 72
    65
 73
     4
 40
10.0
 49
1.0
 49
-2.0
 49
3.0
 49
-4.0
  0
LTYPE
  2
RAND2
 70
    64
  3
ランダム線2
 72
    65
 73
     4
 40
14.0
 49
2.0
 49
-3.0
 49
4.0
 49
-5.0
  0
LTYPE
  2
RAND3
 70
    64
  3
ランダム線3
 72
    65
 73
     4
 40
18.0
 49
3.0
 49
-4.0
 49
5.0
 49
-6.0
  0
LTYPE
  2
RAND4
 70
    64
  3
ランダム線4
 72
    65
 73
     4
 40
22.0
 49
4.0
 49
-5.0
 49
6.0
 49
-7.0
  0
LTYPE
  2
RAND5
 70
    64
  3
ランダム線5
 72
    65
 73
     4
 40
26.0
 49
5.0
 49
-6.0
 49
7.0
 49
-8.0
  0
LTYPE
  2
LONG1
 70
    64
  3
----------  --  ----------  --  
 72
    65
 73
     4
 40
40.0
 49
32.5
 49
-2.5
 49
2.5
 49
-2.5
  0
LTYPE
  2
LONG2
 70
    64
  3
--------  -  -  --------  -  -  
 72
    65
 73
     6
 40
40.0
 49
30.0
 49
-2.5
 49
1.25
 49
-2.5
 49
1.25
 49
-2.5
  0
LTYPE
  2
LONG3
 70
    64
  3
+++++++++++++++..+++++++++++++++
 72
    65
 73
     2
 40
40.0
 49
37.5
 49
-2.5
  0
LTYPE
  2
LONG4
 70
    64
  3
+++++++++++++++..+++++++++++++++
 72
    65
 73
     2
 40
80.0
 49
75.0
 49
-5.0
  0
LTYPE
  2
LONG5
 70
    64
  3
----------  --  ----------  --  
 72
    65
 73
     4
 40
60.0
 49
37.5
 49
-7.5
 49
7.5
 49
-7.5
  0
LTYPE
  2
dashed
 70
   64
  3
-------   -------------   ------
 72
   65
 73
    2
 40
7.5
 49
6
 49
-1.5
  0
LTYPE
  2
dashed_spaced
 70
   64
  3
----        --------        ----
 72
   65
 73
    2
 40
12
 49
6
 49
-6
  0
LTYPE
  2
long_dashed_dotted
 70
   64
  3
------------- --- --------------
 72
   65
 73
    4
 40
15.25
 49
12
 49
-1.5
 49
0.25
 49
-1.5
  0
LTYPE
  2
long_dashed_double-dotted
 70
   64
  3
----------- --- --- ------------
 72
   65
 73
    6
 40
17
 49
12
 49
-1.5
 49
0.25
 49
-1.5
 49
0.25
 49
-1.5
  0
LTYPE
  2
long_dashed_triplicate-dotted
 70
   64
  3
--------- --- --- --- ----------
 72
   65
 73
    8
 40
18.75
 49
12
 49
-1.5
 49
0.25
 49
-1.5
 49
0.25
 49
-1.5
 49
0.25
 49
-1.5
  0
LTYPE
  2
dotted
 70
   64
  3
   -       -       -       -    
 72
   65
 73
    2
 40
1.75
 49
0.25
 49
-1.5
  0
LTYPE
  2
chain
 70
   64
  3
-------------- -- --------------
 72
   65
 73
    4
 40
18.5
 49
12
 49
-1.5
 49
3.5
 49
-1.5
  0
LTYPE
  2
chain_double_dash
 70
   64
  3
------------ -- -- -------------
 72
   65
 73
    6
 40
23.5
 49
12
 49
-1.5
 49
3.5
 49
-1.5
 49
3.5
 49
-1.5
  0
LTYPE
  2
dashed_dotted
 70
   64
  3
-----------     -     ----------
 72
   65
 73
    4
 40
9.25
 49
6
 49
-1.5
 49
0.25
 49
-1.5
  0
LTYPE
  2
double-dashed_dotted
 70
   64
  3
------   -----------   -   -----
 72
   65
 73
    6
 40
16.75
 49
6
 49
-1.5
 49
6
 49
-1.5
 49
0.25
 49
-1.5
  0
LTYPE
  2
dashed_double-dotted
 70
   64
  3
---------    -    -    ---------
 72
   65
 73
    6
 40
11
 49
6
 49
-1.5
 49
0.25
 49
-1.5
 49
0.25
 49
-1.5
  0
LTYPE
  2
double-dashed_double-dotted
 70
   64
  3
-----   ---------   -   -   ----
 72
   65
 73
    8
 40
18.5
 49
6
 49
-1.5
 49
6
 49
-1.5
 49
0.25
 49
-1.5
 49
0.25
 49
-1.5
  0
LTYPE
  2
dashed_triplicate-dotted
 70
   64
  3
-------    -    -    -    ------
 72
   65
 73
    8
 40
12.75
 49
6
 49
-1.5
 49
0.25
 49
-1.5
 49
0.25
 49
-1.5
 49
0.25
 49
-1.5
  0
LTYPE
  2
double-dashed_triplicate-dotted
 70
   64
  3
-----  ---------  -  -  -  -----
 72
   65
 73
   10
 40
20.25
 49
6
 49
-1.5
 49
6
 49
-1.5
 49
0.25
 49
-1.5
 49
0.25
 49
-1.5
 49
0.25
 49
-1.5
  0
LTYPE
  2
undefined
 70
   64
  3
--------------------------------
 72
   65
 73
    0
 40
0
  0
ENDTAB
  0
TABLE
  2
STYLE
  5
3
100
AcDbSymbolTable
 70
     1
  0
STYLE
  5
10
100
AcDbSymbolTableRecord
100
AcDbTextStyleTableRecord
  2
STANDARD
 70
     0
 40
0.0
 41
1.0
 50
0.0
 71
     0
 42
0.2
  3
txt
  4
bigfont.shx
  0
STYLE
  5
26
100
AcDbSymbolTableRecord
100
AcDbTextStyleTableRecord
  2
TATEGAKI
 70
    68
 40
0.0
 41
1.0
 50
0.0
 71
     0
 42
1.0
  3
txt
  4
bigfont.shx
  0
ENDTAB
  0
TABLE
  2
LAYER
 70
    5
  0
LAYER
  2
_0-1_
 70
   64
 62
    7
  6
CONTINUOUS
  0
LAYER
  2
_1-1_
 70
   64
 62
    7
  6
CONTINUOUS
  0
LAYER
  2
_1-2_
 70
   64
 62
    7
  6
CONTINUOUS
  0
LAYER
  2
_1-3_ADD_LINE
 70
   64
 62
    7
  6
CONTINUOUS
  0
LAYER
  2
ADD_LINE
 70
   64
 62
    7
  6
CONTINUOUS
  0
ENDTAB
  0
ENDSEC
  0
SECTION
  2
BLOCKS
  0
ENDSEC
  0
SECTION
  2
ENTITIES
  0
LINE
  8
_1-2_
  6
CONTINUOUS
 62
    6
 10
213.8519062910168
 20
81.138916823599459
 11
200.8519062910168
 21
81.138916823599459
  0
LINE
  8
_1-2_
  6
CONTINUOUS
 62
    6
 10
169.2019062910168
 20
203.19028126569563
 11
167.50190629101681
 21
203.19028126569563
  0
LINE
  8
_0-1_
  6
CONTINUOUS
 62
    3
 10
109.91378294262526
 20
10.082039243805809
 11
109.59104797587588
 21
10.082039243805809
  0
LINE
  8
_0-1_
  6
CONTINUOUS
 62
    3
 10
109.59104797587588
 20
10.082039243805809
 11
109.59104797587588
 21
280.35561316697232
  0
LINE
  8
_0-1_
  6
CONTINUOUS
 62
    3
 10
289.74820746365236
 20
280.35561316697232
 11
289.74820746365236
 21
10.082039243805809
  0
LINE
  8
_0-1_
  6
CONTINUOUS
 62
    3
 10
109.59104797587588
 20
280.35561316697232
 11
289.74820746365236
 21
280.35561316697232
  0
LINE
  8
_0-1_
  6
CONTINUOUS
 62
    3
 10
289.74820746365236
 20
10.082039243805809
 11
109.59104797587588
 21
10.082039243805809
  0
LINE
  8
_0-1_
  6
CONTINUOUS
 62
    3
 10
289.74820746365236
 20
25.082039243805809
 11
109.59104797587588
 21
25.082039243805809
  0
LINE
  8
_0-1_
  6
CONTINUOUS
 62
    3
 10
169.59104797587588
 20
10.082039243805809
 11
169.59104797587588
 21
25.082039243805809
  0
LINE
  8
_0-1_
  6
CONTINUOUS
 62
    3
 10
229.59104797587588
 20
10.082039243805809
 11
229.59104797587588
 21
25.082039243805809
  0
TEXT
  8
_0-1_
 62
    7
 10
111.53633893959282
 20
21.577207655443985
 40
2
 41
1
 50
0
  1
ＴＩＴＬＥ
  0
TEXT
  8
_0-1_
 62
    7
 10
171.46168920362626
 20
21.325420469460653
 40
2
 41
1
 50
0
  1
ＭＯＤＥＬ
  0
TEXT
  8
_0-1_
 62
    7
 10
236.24586551082081
 20
15.198940813772481
 40
4
 41
1
 50
0
  1
日伸制御機工株式会社
  0
TEXT
  8
_0-1_
 62
    7
 10
119.50276243093923
 20
14.378453038674053
 40
4
 41
1
 50
0
  1
スパークケンチャー
  0
LINE
  8
_1-2_
  6
CONTINUOUS
 62
    6
 10
200.8519062910168
 20
81.138916823599459
 11
175.8519062910168
 21
81.138916823599459
  0
LINE
  8
_1-2_
  6
DASHED1
 62
    4
 10
190.64127833815706
 20
118.01406020878483
 11
190.64127833815706
 21
104.01406020878483
  0
LINE
  8
_1-2_
  6
DASHED1
 62
    4
 10
186.64127833815706
 20
118.01406020878483
 11
186.64127833815706
 21
104.01406020878483
  0
LINE
  8
_1-2_
  6
DASHED1
 62
    4
 10
186.64127833815706
 20
118.01406020878483
 11
190.64127833815706
 21
118.01406020878483
  0
LINE
  8
_1-2_
  6
DASHED1
 62
    4
 10
186.64127833815706
 20
104.01406020878483
 11
190.64127833815706
 21
104.01406020878483
  0
LINE
  8
_1-2_
  6
CONTINUOUS
 62
    6
 10
200.8519062910168
 20
136.13891682359946
 11
175.8519062910168
 21
136.13891682359946
  0
CIRCLE
  8
_1-2_
  6
CONTINUOUS
 62
    6
 10
188.3519062910168
 20
205.34028126569564
 40
11.5
  0
CIRCLE
  8
_1-2_
  6
CONTINUOUS
 62
    6
 10
183.3519062910168
 20
205.34028126569564
 40
0.5
  0
CIRCLE
  8
_1-2_
  6
CONTINUOUS
 62
    6
 10
193.3519062910168
 20
205.34028126569564
 40
0.5
  0
LINE
  8
_1-2_
  6
CONTINUOUS
 62
    6
 10
172.86626778303142
 20
197.49139599452494
 11
170.74494743947179
 21
195.3700756509653
  0
LINE
  8
_1-2_
  6
CONTINUOUS
 62
    6
 10
175.16436482188769
 20
196.96106590863502
 11
171.27527752536167
 21
193.07197861210904
  0
LINE
  8
_1-2_
  6
CONTINUOUS
 62
    6
 10
174.20977066728585
 20
189.78393207959158
 11
172.79555710491275
 21
191.19814564196469
  0
ARC
  8
_1-2_
  6
CONTINUOUS
 62
    6
 10
177.56852787792195
 20
191.72847572785457
 40
2
 50
315
 51
45.000000000000028
  0
LINE
  8
_1-2_
  6
CONTINUOUS
 62
    6
 10
177.92208126851523
 20
189.25360199370166
 11
178.98274144029506
 21
190.31426216548149
  0
ARC
  8
_1-2_
  6
CONTINUOUS
 62
    6
 10
176.50786770614212
 20
190.66781555607477
 40
2
 50
225.00000000000006
 51
315.00000000000006
  0
LINE
  8
_1-2_
  6
CONTINUOUS
 62
    6
 10
173.85621727669258
 20
192.25880581374449
 11
170.74494743947179
 21
195.3700756509653
  0
LINE
  8
_1-2_
  6
CONTINUOUS
 62
    6
 10
175.97753762025224
 20
194.38012615730415
 11
172.86626778303142
 21
197.49139599452494
  0
LINE
  8
_1-2_
  6
CONTINUOUS
 62
    6
 10
172.97233380020941
 20
191.3749223372613
 11
171.27527752536167
 21
193.07197861210904
  0
LINE
  8
_1-2_
  6
CONTINUOUS
 62
    6
 10
178.98274144029506
 20
193.14268929022768
 11
175.09365414376904
 21
189.25360199370166
  0
LINE
  8
_1-2_
  6
CONTINUOUS
 62
    6
 10
178.98274144029506
 20
193.14268929022768
 11
178.2756346591085
 21
193.84979607141423
  0
LINE
  8
_1-2_
  6
CONTINUOUS
 62
    6
 10
176.8614210967354
 20
195.26400963378734
 11
175.16436482188769
 21
196.96106590863502
  0
LINE
  8
_1-2_
  6
CONTINUOUS
 62
    6
 10
176.89189292602697
 20
195.29448146307888
 11
172.79555710491275
 21
191.19814564196469
  0
ARC
  8
_1-2_
  6
CONTINUOUS
 62
    6
 10
175.47767936365386
 20
196.70869502545196
 40
2
 50
315
 51
33.840063127814688
  0
LINE
  8
_1-2_
  6
CONTINUOUS
 62
    6
 10
178.19685828522185
 20
195.18523325990066
 11
173.5026638860993
 21
190.49103886077813
  0
ARC
  8
_1-2_
  6
CONTINUOUS
 62
    6
 10
176.78264472284877
 20
196.59944682227376
 40
2
 50
315
 51
37.071858233797691
  0
LINE
  8
_1-2_
  6
CONTINUOUS
 62
    6
 10
173.5026638860993
 20
190.49103886077813
 11
178.19685828522185
 21
195.18523325990068
  0
ARC
  8
_1-2_
  6
CONTINUOUS
 62
    6
 10
188.3519062910168
 20
205.34028126569564
 40
12.5
 50
232.9281417662022
 51
217.0718582337978
  0
ARC
  8
_1-2_
  6
CONTINUOUS
 62
    6
 10
179.61107184759496
 20
193.77101969752758
 40
2
 50
52.928141766202295
 51
134.99999999999991
  0
LINE
  8
_1-2_
  6
CONTINUOUS
 62
    6
 10
178.30610648840008
 20
193.8802679007058
 11
174.20977066728585
 21
189.78393207959158
  0
ARC
  8
_1-2_
  6
CONTINUOUS
 62
    6
 10
188.3519062910168
 20
205.34028126569564
 40
13.5
 50
236.15993687218543
 51
213.84006312781457
  0
ARC
  8
_1-2_
  6
CONTINUOUS
 62
    6
 10
179.72032005077315
 20
192.4660543383327
 40
2
 50
56.159936872185391
 51
135.00000000000009
  0
CIRCLE
  8
_1-2_
  6
CONTINUOUS
 62
    6
 10
188.3519062910168
 20
205.34028126569564
 40
12.5
  0
LINE
  8
_1-2_
  6
CONTINUOUS
 62
    6
 10
175.09365414376904
 20
189.25360199370166
 11
174.38654736258249
 21
189.96070877488822
  0
LINE
  8
_1-2_
  6
CONTINUOUS
 62
    6
 10
192.8519062910168
 20
161.13891682359946
 11
193.8519062910168
 21
161.13891682359946
  0
ARC
  8
_1-2_
  6
CONTINUOUS
 62
    6
 10
193.75336488551753
 20
147.93696211697198
 40
0.5
 50
216.59041666293757
 51
281.36642136727284
  0
ARC
  8
_1-2_
  6
CONTINUOUS
 62
    6
 10
193.75336488551753
 20
148.93696211697198
 40
0.5
 50
216.59041666293757
 51
281.36642136727284
  0
ARC
  8
_1-2_
  6
CONTINUOUS
 62
    6
 10
192.95044769651608
 20
148.34087153022693
 40
0.5
 50
36.590416662937571
 51
101.36642136727282
  0
ARC
  8
_1-2_
  6
CONTINUOUS
 62
    6
 10
192.95044769651608
 20
147.34087153022693
 40
0.5
 50
36.590416662937571
 51
101.36642136727282
  0
LINE
  8
_1-2_
  6
CONTINUOUS
 62
    6
 10
192.8519062910168
 20
161.13891682359946
 11
192.8519062910168
 21
148.83106495266571
  0
LINE
  8
_1-2_
  6
CONTINUOUS
 62
    6
 10
192.8519062910168
 20
147.83106495266571
 11
192.8519062910168
 21
136.13891682359946
  0
LINE
  8
_1-2_
  6
CONTINUOUS
 62
    6
 10
193.8519062910168
 20
161.13891682359946
 11
193.8519062910168
 21
148.4467686945332
  0
LINE
  8
_1-2_
  6
CONTINUOUS
 62
    6
 10
193.8519062910168
 20
147.4467686945332
 11
193.8519062910168
 21
136.13891682359946
  0
LINE
  8
_1-2_
  6
CONTINUOUS
 62
    6
 10
182.8519062910168
 20
161.13891682359946
 11
183.8519062910168
 21
161.13891682359946
  0
ARC
  8
_1-2_
  6
CONTINUOUS
 62
    6
 10
183.75336488551753
 20
147.93696211697198
 40
0.5
 50
216.59041666293757
 51
281.36642136727284
  0
ARC
  8
_1-2_
  6
CONTINUOUS
 62
    6
 10
183.75336488551753
 20
148.93696211697198
 40
0.5
 50
216.59041666293757
 51
281.36642136727284
  0
ARC
  8
_1-2_
  6
CONTINUOUS
 62
    6
 10
182.95044769651608
 20
148.34087153022693
 40
0.5
 50
36.590416662937571
 51
101.36642136727282
  0
ARC
  8
_1-2_
  6
CONTINUOUS
 62
    6
 10
182.95044769651608
 20
147.34087153022693
 40
0.5
 50
36.590416662937571
 51
101.36642136727282
  0
LINE
  8
_1-2_
  6
CONTINUOUS
 62
    6
 10
182.8519062910168
 20
161.13891682359946
 11
182.8519062910168
 21
148.83106495266571
  0
LINE
  8
_1-2_
  6
CONTINUOUS
 62
    6
 10
182.8519062910168
 20
147.83106495266571
 11
182.8519062910168
 21
136.13891682359946
  0
LINE
  8
_1-2_
  6
CONTINUOUS
 62
    6
 10
183.8519062910168
 20
161.13891682359946
 11
183.8519062910168
 21
148.4467686945332
  0
LINE
  8
_1-2_
  6
CONTINUOUS
 62
    6
 10
183.8519062910168
 20
147.4467686945332
 11
183.8519062910168
 21
136.13891682359946
  0
LINE
  8
_1-2_
  6
CONTINUOUS
 62
    6
 10
213.8519062910168
 20
81.638916823599459
 11
213.8519062910168
 21
81.138916823599459
  0
LINE
  8
_1-2_
  6
CONTINUOUS
 62
    6
 10
201.3519062910168
 20
96.638916823599459
 11
201.3519062910168
 21
81.638916823599459
  0
LINE
  8
_1-2_
  6
CONTINUOUS
 62
    6
 10
213.8519062910168
 20
81.638916823599459
 11
201.3519062910168
 21
81.638916823599459
  0
LINE
  8
_1-2_
  6
CONTINUOUS
 62
    6
 10
175.3519062910168
 20
87.638916823599459
 11
175.3519062910168
 21
81.638916823599459
  0
LINE
  8
_1-2_
  6
CONTINUOUS
 62
    6
 10
198.1548778897303
 20
81.138916823599459
 11
162.8519062910168
 21
81.138916823599459
  0
LINE
  8
_1-2_
  6
CONTINUOUS
 62
    6
 10
175.3519062910168
 20
81.638916823599459
 11
162.8519062910168
 21
81.638916823599459
  0
LINE
  8
_1-2_
  6
CONTINUOUS
 62
    6
 10
162.8519062910168
 20
81.638916823599459
 11
162.8519062910168
 21
81.138916823599459
  0
LINE
  8
_1-2_
  6
CONTINUOUS
 62
    6
 10
175.8519062910168
 20
136.13891682359946
 11
175.8519062910168
 21
96.638916823599459
  0
LINE
  8
_1-2_
  6
CONTINUOUS
 62
    6
 10
175.8519062910168
 20
87.638916823599459
 11
175.8519062910168
 21
81.138916823599459
  0
LINE
  8
_1-2_
  6
CONTINUOUS
 62
    6
 10
174.20977066728585
 20
96.638916823599459
 11
174.20977066728585
 21
87.638916823599459
  0
LINE
  8
_1-2_
  6
CONTINUOUS
 62
    6
 10
173.5026638860993
 20
96.638916823599459
 11
173.5026638860993
 21
87.638916823599459
  0
LINE
  8
_1-2_
  6
CONTINUOUS
 62
    6
 10
172.79555710491275
 20
96.638916823599459
 11
172.79555710491275
 21
87.638916823599459
  0
LINE
  8
_1-2_
  6
CONTINUOUS
 62
    6
 10
201.3519062910168
 20
96.638916823599459
 11
172.79555710491275
 21
96.638916823599459
  0
LINE
  8
_1-2_
  6
CONTINUOUS
 62
    6
 10
201.3519062910168
 20
87.638916823599459
 11
172.79555710491275
 21
87.638916823599459
  0
LINE
  8
_1-2_
  6
CONTINUOUS
 62
    6
 10
178.45241135440514
 20
96.638916823599459
 11
178.45241135440514
 21
87.638916823599459
  0
LINE
  8
_1-2_
  6
CONTINUOUS
 62
    6
 10
176.33109101084551
 20
94.888916823599459
 11
176.33109101084551
 21
94.888916823599459
  0
LINE
  8
_1-2_
  6
CONTINUOUS
 62
    6
 10
176.33109101084551
 20
94.888916823599459
 11
175.99681826883668
 21
94.847138144383024
  0
LINE
  8
_1-2_
  6
CONTINUOUS
 62
    6
 10
175.99681826883668
 20
94.847138144383024
 11
175.67270223494359
 21
94.723071530760706
  0
LINE
  8
_1-2_
  6
CONTINUOUS
 62
    6
 10
175.67270223494359
 20
94.723071530760706
 11
175.36859101084551
 21
94.52048668400667
  0
LINE
  8
_1-2_
  6
CONTINUOUS
 62
    6
 10
175.36859101084551
 20
94.52048668400667
 11
175.09372486219891
 21
94.245539042176645
  0
LINE
  8
_1-2_
  6
CONTINUOUS
 62
    6
 10
175.09372486219891
 20
94.245539042176645
 11
174.85645545784149
 21
93.906582750237447
  0
LINE
  8
_1-2_
  6
CONTINUOUS
 62
    6
 10
174.85645545784149
 20
93.906582750237447
 11
174.66399210856048
 21
93.513916823599459
  0
LINE
  8
_1-2_
  6
CONTINUOUS
 62
    6
 10
174.66399210856048
 20
93.513916823599459
 11
174.52218271583263
 21
93.07947221774505
  0
LINE
  8
_1-2_
  6
CONTINUOUS
 62
    6
 10
174.52218271583263
 20
93.07947221774505
 11
174.43533608629701
 21
92.616449312183519
  0
LINE
  8
_1-2_
  6
CONTINUOUS
 62
    6
 10
174.43533608629701
 20
92.616449312183519
 11
174.4060910108455
 21
92.138916823599459
  0
LINE
  8
_1-2_
  6
CONTINUOUS
 62
    6
 10
174.4060910108455
 20
92.138916823599459
 11
174.43533608629701
 21
91.661384335015399
  0
LINE
  8
_1-2_
  6
CONTINUOUS
 62
    6
 10
174.43533608629701
 20
91.661384335015399
 11
174.52218271583263
 21
91.198361429453868
  0
LINE
  8
_1-2_
  6
CONTINUOUS
 62
    6
 10
174.52218271583263
 20
91.198361429453868
 11
174.66399210856048
 21
90.763916823599459
  0
LINE
  8
_1-2_
  6
CONTINUOUS
 62
    6
 10
174.66399210856048
 20
90.763916823599459
 11
174.85645545784149
 21
90.37125089696147
  0
LINE
  8
_1-2_
  6
CONTINUOUS
 62
    6
 10
174.85645545784149
 20
90.37125089696147
 11
175.09372486219891
 21
90.032294605022273
  0
LINE
  8
_1-2_
  6
CONTINUOUS
 62
    6
 10
175.09372486219891
 20
90.032294605022273
 11
175.36859101084551
 21
89.757346963192248
  0
LINE
  8
_1-2_
  6
CONTINUOUS
 62
    6
 10
175.36859101084551
 20
89.757346963192248
 11
175.67270223494359
 21
89.554762116438212
  0
LINE
  8
_1-2_
  6
CONTINUOUS
 62
    6
 10
175.67270223494359
 20
89.554762116438212
 11
175.99681826883668
 21
89.430695502815894
  0
LINE
  8
_1-2_
  6
CONTINUOUS
 62
    6
 10
175.99681826883668
 20
89.430695502815894
 11
176.33109101084551
 21
89.388916823599459
  0
LINE
  8
_1-2_
  6
CONTINUOUS
 62
    6
 10
176.33109101084551
 20
89.388916823599459
 11
176.66536375285435
 21
89.43069550281588
  0
LINE
  8
_1-2_
  6
CONTINUOUS
 62
    6
 10
176.66536375285435
 20
89.43069550281588
 11
176.98947978674741
 21
89.554762116438212
  0
LINE
  8
_1-2_
  6
CONTINUOUS
 62
    6
 10
176.98947978674741
 20
89.554762116438212
 11
177.29359101084552
 21
89.757346963192248
  0
LINE
  8
_1-2_
  6
CONTINUOUS
 62
    6
 10
177.29359101084552
 20
89.757346963192248
 11
177.56845715949208
 21
90.032294605022258
  0
LINE
  8
_1-2_
  6
CONTINUOUS
 62
    6
 10
177.56845715949208
 20
90.032294605022258
 11
177.80572656384953
 21
90.37125089696147
  0
LINE
  8
_1-2_
  6
CONTINUOUS
 62
    6
 10
177.80572656384953
 20
90.37125089696147
 11
177.99818991313055
 21
90.763916823599459
  0
LINE
  8
_1-2_
  6
CONTINUOUS
 62
    6
 10
177.99818991313055
 20
90.763916823599459
 11
178.1399993058584
 21
91.198361429453868
  0
LINE
  8
_1-2_
  6
CONTINUOUS
 62
    6
 10
178.1399993058584
 20
91.198361429453868
 11
178.22684593539401
 21
91.661384335015399
  0
LINE
  8
_1-2_
  6
CONTINUOUS
 62
    6
 10
178.22684593539401
 20
91.661384335015399
 11
178.25609101084552
 21
92.138916823599445
  0
LINE
  8
_1-2_
  6
CONTINUOUS
 62
    6
 10
178.25609101084552
 20
92.138916823599445
 11
178.22684593539401
 21
92.616449312183505
  0
LINE
  8
_1-2_
  6
CONTINUOUS
 62
    6
 10
178.22684593539401
 20
92.616449312183505
 11
178.1399993058584
 21
93.079472217745035
  0
LINE
  8
_1-2_
  6
CONTINUOUS
 62
    6
 10
178.1399993058584
 20
93.079472217745035
 11
177.99818991313057
 21
93.513916823599445
  0
LINE
  8
_1-2_
  6
CONTINUOUS
 62
    6
 10
177.99818991313057
 20
93.513916823599445
 11
177.80572656384956
 21
93.906582750237433
  0
LINE
  8
_1-2_
  6
CONTINUOUS
 62
    6
 10
177.80572656384956
 20
93.906582750237433
 11
177.56845715949211
 21
94.245539042176645
  0
LINE
  8
_1-2_
  6
CONTINUOUS
 62
    6
 10
177.56845715949211
 20
94.245539042176645
 11
177.29359101084552
 21
94.520486684006656
  0
LINE
  8
_1-2_
  6
CONTINUOUS
 62
    6
 10
177.29359101084552
 20
94.520486684006656
 11
176.98947978674744
 21
94.723071530760706
  0
LINE
  8
_1-2_
  6
CONTINUOUS
 62
    6
 10
176.98947978674744
 20
94.723071530760706
 11
176.66536375285438
 21
94.847138144383024
  0
LINE
  8
_1-2_
  6
CONTINUOUS
 62
    6
 10
176.66536375285438
 20
94.847138144383024
 11
176.33109101084551
 21
94.888916823599459
  0
LINE
  8
_1-2_
  6
CONTINUOUS
 62
    6
 10
176.33109101084551
 20
94.888916823599459
 11
176.33109101084551
 21
94.888916823599459
  0
LINE
  8
_1-2_
  6
CONTINUOUS
 62
    6
 10
176.83109101084551
 20
93.426296511095501
 11
176.83109101084551
 21
90.777146607246422
  0
LINE
  8
_1-2_
  6
CONTINUOUS
 62
    6
 10
176.14772664837071
 20
92.138916823599459
 11
177.55175971429443
 21
92.138916823599459
  0
LINE
  8
_1-2_
  6
CONTINUOUS
 62
    6
 10
172.79555710491275
 20
94.838916823599462
 11
171.27527752536167
 21
94.838916823599462
  0
LINE
  8
_1-2_
  6
CONTINUOUS
 62
    6
 10
172.79555710491275
 20
89.438916823599456
 11
171.27527752536167
 21
89.438916823599456
  0
LINE
  8
_1-2_
  6
CONTINUOUS
 62
    6
 10
171.27527752536167
 20
94.838916823599462
 11
171.27527752536167
 21
89.438916823599456
  0
LINE
  8
_1-2_
  6
CONTINUOUS
 62
    6
 10
171.27527752536167
 20
90.638916823599459
 11
170.74494743947179
 21
90.638916823599459
  0
LINE
  8
_1-2_
  6
CONTINUOUS
 62
    6
 10
170.74494743947179
 20
93.638916823599459
 11
170.74494743947179
 21
90.638916823599459
  0
LINE
  8
_1-2_
  6
CONTINUOUS
 62
    6
 10
171.27527752536167
 20
93.638916823599459
 11
170.74494743947179
 21
93.638916823599459
  0
LINE
  8
_1-2_
  6
CONTINUOUS
 62
    6
 10
169.2019062910168
 20
207.49028126569561
 11
167.50190629101681
 21
207.49028126569561
  0
ARC
  8
_1-2_
  6
CONTINUOUS
 62
    6
 10
167.50190629101681
 20
205.34028126569564
 40
2.1499999999999999
 50
90
 51
270
  0
ARC
  8
_1-2_
  6
CONTINUOUS
 62
    6
 10
169.2019062910168
 20
205.34028126569564
 40
2.1499999999999999
 50
270
 51
90
  0
ARC
  8
_1-2_
  6
CONTINUOUS
 62
    6
 10
167.3519062910168
 20
205.34028126569564
 40
4.5
 50
90
 51
270
  0
LINE
  8
_1-2_
  6
CONTINUOUS
 62
    6
 10
209.2019062910168
 20
203.19028126569563
 11
207.50190629101681
 21
203.19028126569563
  0
LINE
  8
_1-2_
  6
CONTINUOUS
 62
    6
 10
209.2019062910168
 20
207.49028126569561
 11
207.50190629101681
 21
207.49028126569561
  0
ARC
  8
_1-2_
  6
CONTINUOUS
 62
    6
 10
207.50190629101681
 20
205.34028126569564
 40
2.1499999999999999
 50
90
 51
270
  0
ARC
  8
_1-2_
  6
CONTINUOUS
 62
    6
 10
209.2019062910168
 20
205.34028126569564
 40
2.1499999999999999
 50
270
 51
90
  0
LINE
  8
_1-3_ADD_LINE
  6
CENTER1
 62
    7
 10
204.70323860688012
 20
205.34028126569564
 11
212.13070419095877
 21
205.34028126569564
  0
LINE
  8
_1-3_ADD_LINE
  6
CENTER1
 62
    7
 10
208.3519062910168
 20
202.30502426665851
 11
208.3519062910168
 21
208.20330575989743
  0
LINE
  8
_1-3_ADD_LINE
  6
CENTER1
 62
    7
 10
168.3519062910168
 20
202.52347913677849
 11
168.3519062910168
 21
207.8756234547175
  0
LINE
  8
_1-3_ADD_LINE
  6
CENTER1
 62
    7
 10
164.61676993986754
 20
205.34028126569564
 11
172.51506780512307
 21
205.34028126569564
  0
ARC
  8
_1-2_
  6
CONTINUOUS
 62
    6
 10
209.3519062910168
 20
205.34028126569564
 40
4.5
 50
270
 51
90
  0
LINE
  8
_1-2_
  6
CONTINUOUS
 62
    6
 10
167.3519062910168
 20
209.84028126569564
 11
175.62398422965896
 21
209.84028126569564
  0
LINE
  8
_1-2_
  6
CONTINUOUS
 62
    6
 10
201.07982835237465
 20
209.84028126569564
 11
209.3519062910168
 21
209.84028126569564
  0
LINE
  8
_1-2_
  6
CONTINUOUS
 62
    6
 10
167.3519062910168
 20
200.84028126569564
 11
175.62398422965896
 21
200.84028126569564
  0
LINE
  8
_1-2_
  6
CONTINUOUS
 62
    6
 10
201.07982835237465
 20
200.84028126569564
 11
209.3519062910168
 21
200.84028126569564
  0
TEXT
  8
_0-1_
 62
    7
 10
183.54696132596686
 20
14.842541436464046
 40
4
 41
1
 50
0
  1
SQ53033NP
  0
TEXT
  8
_1-1_
 62
    7
 10
137.51438678473016
 20
115.9132324743112
 40
3
 41
1
 50
0
  1
取付け足
  0
TEXT
  8
_1-1_
 62
    7
 10
137.31954591240694
 20
111.87092329848963
 40
3
 41
1
 50
0
  1
鉄＋三化クロムメッキ
  0
LINE
  8
_1-1_
  6
CONTINUOUS
 62
    4
 10
136.54251335429322
 20
110.85949063603897
 11
172.382328433753
 21
110.85949063603897
  0
LINE
  8
_1-1_
  6
CONTINUOUS
 62
    4
 10
185.6353591160221
 20
95.187845303867405
 11
172.382328433753
 21
110.85949063603897
  0
LINE
  8
_1-1_
  6
CONTINUOUS
 62
    4
 10
185.6353591160221
 20
95.187845303867405
 11
183.99265881032221
 21
96.328693981674192
  0
LINE
  8
_1-1_
  6
CONTINUOUS
 62
    4
 10
185.6353591160221
 20
95.187845303867405
 11
184.78316325938493
 21
96.997199393571918
  0
TEXT
  8
_1-1_
 62
    7
 10
142.51704034453385
 20
172.16962458258945
 40
3
 41
1
 50
0
  1
耐熱ビニール電線(赤)
  0
TEXT
  8
_1-1_
 62
    7
 10
143.22508754589018
 20
167.94738178029769
 40
3
 41
1
 50
0
  1
0.75mm
  0
TEXT
  8
_1-1_
 62
    4
 10
153.85511604429877
 20
169.37484569942549
 40
2
 41
1
 50
0
  1
2
  0
LINE
  8
_1-1_
  6
CONTINUOUS
 62
    4
 10
141.54516691409688
 20
167.11588274431722
 11
172.25636731590504
 21
167.11588274431722
  0
LINE
  8
_1-1_
  6
CONTINUOUS
 62
    4
 10
182.69673086902108
 20
157.32844846005921
 11
172.25636731590504
 21
167.11588274431722
  0
LINE
  8
_1-1_
  6
CONTINUOUS
 62
    4
 10
182.69673086902108
 20
157.32844846005921
 11
180.9333196791635
 21
158.2720484682645
  0
LINE
  8
_1-1_
  6
CONTINUOUS
 62
    4
 10
182.69673086902108
 20
157.32844846005921
 11
181.64137198538933
 21
159.027335633105
  0
LINE
  8
_1-2_
  6
CONTINUOUS
 62
    6
 10
200.8519062910168
 20
136.13891682359946
 11
200.8519062910168
 21
96.638916823599459
  0
LINE
  8
_1-2_
  6
CONTINUOUS
 62
    6
 10
200.8519062910168
 20
87.638916823599459
 11
200.8519062910168
 21
81.138916823599459
  0
LINE
  8
_1-3_ADD_LINE
  6
CENTER1
 62
    7
 10
208.3519062910168
 20
84.680311401305886
 11
208.3519062910168
 21
78.909342039176295
  0
LINE
  8
_1-3_ADD_LINE
  6
CENTER1
 62
    7
 10
168.3519062910168
 20
84.391762933199402
 11
168.3519062910168
 21
78.909342039176295
  0
LINE
  8
_1-1_
  6
CONTINUOUS
 62
    4
 10
218.9507785032647
 20
81.138916823599459
 11
218.9507785032647
 21
136.13891682359946
  0
LINE
  8
_1-1_
  6
CONTINUOUS
 62
    4
 10
218.9507785032647
 20
81.138916823599459
 11
218.43314041305965
 21
83.070768476177591
  0
LINE
  8
_1-1_
  6
CONTINUOUS
 62
    4
 10
218.9507785032647
 20
81.138916823599459
 11
219.46841659346973
 21
83.070768476177591
  0
LINE
  8
_1-1_
  6
CONTINUOUS
 62
    4
 10
218.9507785032647
 20
136.13891682359946
 11
218.43314041305965
 21
134.20706517102133
  0
LINE
  8
_1-1_
  6
CONTINUOUS
 62
    4
 10
218.9507785032647
 20
136.13891682359946
 11
219.46841659346973
 21
134.20706517102133
  0
LINE
  8
_1-1_
  6
CONTINUOUS
 62
    4
 10
218.9507785032647
 20
136.13891682359946
 11
208.9507785032647
 21
136.13891682359946
  0
TEXT
  8
_1-1_
 62
    7
 10
218.4507785032647
 20
107.01391682359946
 40
3
 41
1
 50
90
  1
55
  0
LINE
  8
_1-1_
  6
CONTINUOUS
 62
    4
 10
218.9507785032647
 20
136.13891682359946
 11
218.9507785032647
 21
161.13891682359946
  0
LINE
  8
_1-1_
  6
CONTINUOUS
 62
    4
 10
218.9507785032647
 20
136.13891682359946
 11
218.43314041305965
 21
138.07076847617759
  0
LINE
  8
_1-1_
  6
CONTINUOUS
 62
    4
 10
218.9507785032647
 20
136.13891682359946
 11
219.46841659346973
 21
138.07076847617759
  0
LINE
  8
_1-1_
  6
CONTINUOUS
 62
    4
 10
218.9507785032647
 20
161.13891682359946
 11
218.43314041305965
 21
159.20706517102133
  0
LINE
  8
_1-1_
  6
CONTINUOUS
 62
    4
 10
218.9507785032647
 20
161.13891682359946
 11
219.46841659346973
 21
159.20706517102133
  0
LINE
  8
_1-1_
  6
CONTINUOUS
 62
    4
 10
218.9507785032647
 20
161.13891682359946
 11
208.9507785032647
 21
161.13891682359946
  0
LINE
  8
_1-1_
  6
CONTINUOUS
 62
    4
 10
200.8519062910168
 20
224.59134641799699
 11
175.8519062910168
 21
224.59134641799699
  0
LINE
  8
_1-1_
  6
CONTINUOUS
 62
    4
 10
200.8519062910168
 20
224.59134641799699
 11
198.92005463843867
 21
224.07370832779196
  0
LINE
  8
_1-1_
  6
CONTINUOUS
 62
    4
 10
200.8519062910168
 20
224.59134641799699
 11
198.92005463843867
 21
225.10898450820204
  0
LINE
  8
_1-1_
  6
CONTINUOUS
 62
    4
 10
175.8519062910168
 20
224.59134641799699
 11
177.78375794359496
 21
224.07370832779196
  0
LINE
  8
_1-1_
  6
CONTINUOUS
 62
    4
 10
175.8519062910168
 20
224.59134641799699
 11
177.78375794359496
 21
225.10898450820204
  0
TEXT
  8
_1-1_
 62
    7
 10
186.7269062910168
 20
225.09134641799699
 40
3
 41
1
 50
0
  1
25
  0
LINE
  8
_1-1_
  6
CONTINUOUS
 62
    4
 10
208.3519062910168
 20
229.60962424834406
 11
168.3519062910168
 21
229.60962424834406
  0
LINE
  8
_1-1_
  6
CONTINUOUS
 62
    4
 10
208.3519062910168
 20
229.60962424834406
 11
206.42005463843867
 21
229.09198615813904
  0
LINE
  8
_1-1_
  6
CONTINUOUS
 62
    4
 10
208.3519062910168
 20
229.60962424834406
 11
206.42005463843867
 21
230.12726233854909
  0
LINE
  8
_1-1_
  6
CONTINUOUS
 62
    4
 10
168.3519062910168
 20
229.60962424834406
 11
170.28375794359494
 21
229.09198615813904
  0
LINE
  8
_1-1_
  6
CONTINUOUS
 62
    4
 10
168.3519062910168
 20
229.60962424834406
 11
170.28375794359494
 21
230.12726233854909
  0
TEXT
  8
_1-1_
 62
    7
 10
186.7269062910168
 20
230.10962424834406
 40
3
 41
1
 50
0
  1
40
  0
LINE
  8
_1-1_
  6
CONTINUOUS
 62
    4
 10
213.85190629101683
 20
234.59134641799699
 11
162.8519062910168
 21
234.59134641799699
  0
LINE
  8
_1-1_
  6
CONTINUOUS
 62
    4
 10
213.85190629101683
 20
234.59134641799699
 11
211.92005463843867
 21
234.07370832779196
  0
LINE
  8
_1-1_
  6
CONTINUOUS
 62
    4
 10
213.85190629101683
 20
234.59134641799699
 11
211.92005463843867
 21
235.10898450820204
  0
LINE
  8
_1-1_
  6
CONTINUOUS
 62
    4
 10
162.8519062910168
 20
234.59134641799699
 11
164.78375794359496
 21
234.07370832779196
  0
LINE
  8
_1-1_
  6
CONTINUOUS
 62
    4
 10
162.8519062910168
 20
234.59134641799699
 11
164.78375794359496
 21
235.10898450820204
  0
TEXT
  8
_1-1_
 62
    7
 10
186.72690629101683
 20
235.09134641799699
 40
3
 41
1
 50
0
  1
51
  0
LINE
  8
_1-1_
  6
CONTINUOUS
 62
    4
 10
218.9507785032647
 20
81.138916823599459
 11
214.55627117609353
 21
81.138916823599459
  0
LINE
  8
_1-1_
  6
CONTINUOUS
 62
    4
 10
200.8519062910168
 20
224.59134641799699
 11
200.8519062910168
 21
209.38326974146088
  0
LINE
  8
_1-1_
  6
CONTINUOUS
 62
    4
 10
175.8519062910168
 20
224.59134641799699
 11
175.8519062910168
 21
208.81149232318916
  0
LINE
  8
_1-1_
  6
CONTINUOUS
 62
    4
 10
208.3519062910168
 20
229.60962424834406
 11
208.3519062910168
 21
210.86989102896734
  0
LINE
  8
_1-1_
  6
CONTINUOUS
 62
    4
 10
168.3519062910168
 20
229.60962424834406
 11
168.3519062910168
 21
210.75553554531302
  0
LINE
  8
_1-1_
  6
CONTINUOUS
 62
    4
 10
162.8519062910168
 20
234.59134641799699
 11
162.8519062910168
 21
207.89664845395438
  0
LINE
  8
_1-1_
  6
CONTINUOUS
 62
    4
 10
213.85190629101683
 20
234.59134641799699
 11
213.85190629101683
 21
208.35407038857176
  0
TEXT
  8
_1-1_
 62
    7
 10
215.04363906640654
 20
192.76005219495369
 40
3
 41
1
 50
0
  1
4.3×6長穴
  0
LINE
  8
_1-1_
  6
CONTINUOUS
 62
    4
 10
213.36371843461325
 20
191.92855315897322
 11
234.32784290633822
 21
191.92855315897322
  0
LINE
  8
_1-1_
  6
CONTINUOUS
 62
    4
 10
208.9528524770306
 20
202.97936265681756
 11
213.36371843461325
 21
191.92855315897322
  0
LINE
  8
_1-1_
  6
CONTINUOUS
 62
    4
 10
208.9528524770306
 20
202.97936265681756
 11
210.14975685419827
 21
201.37704561206112
  0
LINE
  8
_1-1_
  6
CONTINUOUS
 62
    4
 10
208.9528524770306
 20
202.97936265681756
 11
209.18824355118039
 21
200.99326320255784
  0
TEXT
  8
_1-1_
 62
    7
 10
218.4507785032647
 20
146.13891682359946
 40
3
 41
1
 50
90
  1
300
  0
TEXT
  8
_1-2_
 62
    7
 10
187.37612220739183
 20
113.78056855712589
 40
2.5
 41
1
 50
-90
  1
型式
  0
ENDSEC
  0
EOF
