  0
SECTION
  2
HEADER
  9
$ACADVER
  1
AC1009
  9
$INSBASE
 10
0
 20
0
 30
0
  9
$EXTMIN
 10
0
 20
0
  9
$EXTMAX
 10
420
 20
297
  9
$LIMMIN
 10
0
 20
0
  9
$LIMMAX
 10
420
 20
297
  9
$LTSCALE
 40
1
  0
ENDSEC
  0
SECTION
  2
TABLES
  0
TABLE
  2
LTYPE
 70
     9
  0
LTYPE
  2
CONTINUOUS
 70
    64
  3
実線
 72
    65
 73
     0
 40
0.0
  0
LTYPE
  2
DASHED1
 70
    64
  3
--  --  --  --  --  --  --  --  
 72
    65
 73
     2
 40
2.5
 49
1.25
 49
-1.25
  0
LTYPE
  2
DASHED2
 70
    64
  3
----    ----    ----    ----    
 72
    65
 73
     2
 40
5.0
 49
2.5
 49
-2.5
  0
LTYPE
  2
DASHED3
 70
    64
  3
------  ------  ------  ------  
 72
    65
 73
     2
 40
5.0
 49
3.75
 49
-1.25
  0
LTYPE
  2
CENTER1
 70
    64
  3
----- - ----- - ----- - ----- - 
 72
    65
 73
     4
 40
10.0
 49
6.25
 49
-1.25
 49
1.25
 49
-1.25
  0
LTYPE
  2
CENTER2
 70
    64
  3
----------  --  ----------  --  
 72
    65
 73
     4
 40
20.0
 49
12.5
 49
-2.5
 49
2.5
 49
-2.5
  0
LTYPE
  2
PHANTOM1
 70
    64
  3
--- - - --- - - --- - - --- - - 
 72
    65
 73
     6
 40
10.0
 49
3.25
 49
-1.25
 49
1.25
 49
-1.25
 49
1.25
 49
-1.25
  0
LTYPE
  2
PHANTOM2
 70
    64
  3
--------  -  -  --------  -  -  
 72
    65
 73
     6
 40
20.0
 49
10.0
 49
-2.5
 49
1.25
 49
-2.5
 49
1.25
 49
-2.5
  0
LTYPE
  2
DOT
 70
    64
  3
-   -   -   -   -   -   -   -   
 72
    65
 73
     2
 40
2.5
 49
0.625
 49
-1.875
  0
LTYPE
  2
DUMMY
 70
    64
  3
ダミー
 72
    65
 73
     0
 40
0.0
  0
LTYPE
  2
RAND1
 70
    64
  3
ランダム線1
 72
    65
 73
     4
 40
10.0
 49
1.0
 49
-2.0
 49
3.0
 49
-4.0
  0
LTYPE
  2
RAND2
 70
    64
  3
ランダム線2
 72
    65
 73
     4
 40
14.0
 49
2.0
 49
-3.0
 49
4.0
 49
-5.0
  0
LTYPE
  2
RAND3
 70
    64
  3
ランダム線3
 72
    65
 73
     4
 40
18.0
 49
3.0
 49
-4.0
 49
5.0
 49
-6.0
  0
LTYPE
  2
RAND4
 70
    64
  3
ランダム線4
 72
    65
 73
     4
 40
22.0
 49
4.0
 49
-5.0
 49
6.0
 49
-7.0
  0
LTYPE
  2
RAND5
 70
    64
  3
ランダム線5
 72
    65
 73
     4
 40
26.0
 49
5.0
 49
-6.0
 49
7.0
 49
-8.0
  0
LTYPE
  2
LONG1
 70
    64
  3
----------  --  ----------  --  
 72
    65
 73
     4
 40
40.0
 49
32.5
 49
-2.5
 49
2.5
 49
-2.5
  0
LTYPE
  2
LONG2
 70
    64
  3
--------  -  -  --------  -  -  
 72
    65
 73
     6
 40
40.0
 49
30.0
 49
-2.5
 49
1.25
 49
-2.5
 49
1.25
 49
-2.5
  0
LTYPE
  2
LONG3
 70
    64
  3
+++++++++++++++..+++++++++++++++
 72
    65
 73
     2
 40
40.0
 49
37.5
 49
-2.5
  0
LTYPE
  2
LONG4
 70
    64
  3
+++++++++++++++..+++++++++++++++
 72
    65
 73
     2
 40
80.0
 49
75.0
 49
-5.0
  0
LTYPE
  2
LONG5
 70
    64
  3
----------  --  ----------  --  
 72
    65
 73
     4
 40
60.0
 49
37.5
 49
-7.5
 49
7.5
 49
-7.5
  0
LTYPE
  2
dashed
 70
   64
  3
-------   -------------   ------
 72
   65
 73
    2
 40
7.5
 49
6
 49
-1.5
  0
LTYPE
  2
dashed_spaced
 70
   64
  3
----        --------        ----
 72
   65
 73
    2
 40
12
 49
6
 49
-6
  0
LTYPE
  2
long_dashed_dotted
 70
   64
  3
------------- --- --------------
 72
   65
 73
    4
 40
15.25
 49
12
 49
-1.5
 49
0.25
 49
-1.5
  0
LTYPE
  2
long_dashed_double-dotted
 70
   64
  3
----------- --- --- ------------
 72
   65
 73
    6
 40
17
 49
12
 49
-1.5
 49
0.25
 49
-1.5
 49
0.25
 49
-1.5
  0
LTYPE
  2
long_dashed_triplicate-dotted
 70
   64
  3
--------- --- --- --- ----------
 72
   65
 73
    8
 40
18.75
 49
12
 49
-1.5
 49
0.25
 49
-1.5
 49
0.25
 49
-1.5
 49
0.25
 49
-1.5
  0
LTYPE
  2
dotted
 70
   64
  3
   -       -       -       -    
 72
   65
 73
    2
 40
1.75
 49
0.25
 49
-1.5
  0
LTYPE
  2
chain
 70
   64
  3
-------------- -- --------------
 72
   65
 73
    4
 40
18.5
 49
12
 49
-1.5
 49
3.5
 49
-1.5
  0
LTYPE
  2
chain_double_dash
 70
   64
  3
------------ -- -- -------------
 72
   65
 73
    6
 40
23.5
 49
12
 49
-1.5
 49
3.5
 49
-1.5
 49
3.5
 49
-1.5
  0
LTYPE
  2
dashed_dotted
 70
   64
  3
-----------     -     ----------
 72
   65
 73
    4
 40
9.25
 49
6
 49
-1.5
 49
0.25
 49
-1.5
  0
LTYPE
  2
double-dashed_dotted
 70
   64
  3
------   -----------   -   -----
 72
   65
 73
    6
 40
16.75
 49
6
 49
-1.5
 49
6
 49
-1.5
 49
0.25
 49
-1.5
  0
LTYPE
  2
dashed_double-dotted
 70
   64
  3
---------    -    -    ---------
 72
   65
 73
    6
 40
11
 49
6
 49
-1.5
 49
0.25
 49
-1.5
 49
0.25
 49
-1.5
  0
LTYPE
  2
double-dashed_double-dotted
 70
   64
  3
-----   ---------   -   -   ----
 72
   65
 73
    8
 40
18.5
 49
6
 49
-1.5
 49
6
 49
-1.5
 49
0.25
 49
-1.5
 49
0.25
 49
-1.5
  0
LTYPE
  2
dashed_triplicate-dotted
 70
   64
  3
-------    -    -    -    ------
 72
   65
 73
    8
 40
12.75
 49
6
 49
-1.5
 49
0.25
 49
-1.5
 49
0.25
 49
-1.5
 49
0.25
 49
-1.5
  0
LTYPE
  2
double-dashed_triplicate-dotted
 70
   64
  3
-----  ---------  -  -  -  -----
 72
   65
 73
   10
 40
20.25
 49
6
 49
-1.5
 49
6
 49
-1.5
 49
0.25
 49
-1.5
 49
0.25
 49
-1.5
 49
0.25
 49
-1.5
  0
LTYPE
  2
undefined
 70
   64
  3
--------------------------------
 72
   65
 73
    0
 40
0
  0
ENDTAB
  0
TABLE
  2
STYLE
  5
3
100
AcDbSymbolTable
 70
     1
  0
STYLE
  5
10
100
AcDbSymbolTableRecord
100
AcDbTextStyleTableRecord
  2
STANDARD
 70
     0
 40
0.0
 41
1.0
 50
0.0
 71
     0
 42
0.2
  3
txt
  4
bigfont.shx
  0
STYLE
  5
26
100
AcDbSymbolTableRecord
100
AcDbTextStyleTableRecord
  2
TATEGAKI
 70
    68
 40
0.0
 41
1.0
 50
0.0
 71
     0
 42
1.0
  3
txt
  4
bigfont.shx
  0
ENDTAB
  0
TABLE
  2
LAYER
 70
    5
  0
LAYER
  2
_0-1_
 70
   64
 62
    7
  6
CONTINUOUS
  0
LAYER
  2
_1-1_
 70
   64
 62
    7
  6
CONTINUOUS
  0
LAYER
  2
_1-2_
 70
   64
 62
    7
  6
CONTINUOUS
  0
LAYER
  2
_1-3_ADD_LINE
 70
   64
 62
    7
  6
CONTINUOUS
  0
LAYER
  2
ADD_LINE
 70
   64
 62
    7
  6
CONTINUOUS
  0
ENDTAB
  0
ENDSEC
  0
SECTION
  2
BLOCKS
  0
ENDSEC
  0
SECTION
  2
ENTITIES
  0
LINE
  8
_0-1_
  6
CONTINUOUS
 62
    3
 10
109.91378294262526
 20
10.082039243805809
 11
109.59104797587588
 21
10.082039243805809
  0
LINE
  8
_0-1_
  6
CONTINUOUS
 62
    3
 10
109.59104797587588
 20
10.082039243805809
 11
109.59104797587588
 21
280.35561316697232
  0
LINE
  8
_0-1_
  6
CONTINUOUS
 62
    3
 10
289.74820746365236
 20
280.35561316697232
 11
289.74820746365236
 21
10.082039243805809
  0
LINE
  8
_0-1_
  6
CONTINUOUS
 62
    3
 10
109.59104797587588
 20
280.35561316697232
 11
289.74820746365236
 21
280.35561316697232
  0
LINE
  8
_0-1_
  6
CONTINUOUS
 62
    3
 10
289.74820746365236
 20
10.082039243805809
 11
109.59104797587588
 21
10.082039243805809
  0
LINE
  8
_0-1_
  6
CONTINUOUS
 62
    3
 10
289.74820746365236
 20
25.082039243805809
 11
109.59104797587588
 21
25.082039243805809
  0
LINE
  8
_0-1_
  6
CONTINUOUS
 62
    3
 10
169.59104797587588
 20
10.082039243805809
 11
169.59104797587588
 21
25.082039243805809
  0
LINE
  8
_0-1_
  6
CONTINUOUS
 62
    3
 10
229.59104797587588
 20
10.082039243805809
 11
229.59104797587588
 21
25.082039243805809
  0
TEXT
  8
_0-1_
 62
    7
 10
111.53633893959282
 20
21.577207655443985
 40
2
 41
1
 50
0
  1
ＴＩＴＬＥ
  0
TEXT
  8
_0-1_
 62
    7
 10
171.46168920362626
 20
21.325420469460653
 40
2
 41
1
 50
0
  1
ＭＯＤＥＬ
  0
TEXT
  8
_0-1_
 62
    7
 10
236.24586551082081
 20
15.198940813772481
 40
4
 41
1
 50
0
  1
日伸制御機工株式会社
  0
TEXT
  8
_0-1_
 62
    7
 10
119.50276243093923
 20
14.378453038674053
 40
4
 41
1
 50
0
  1
スパークケンチャー
  0
LINE
  8
_1-2_
  6
CONTINUOUS
 62
    6
 10
244.8519062910168
 20
161.13891682359946
 11
245.8519062910168
 21
161.13891682359946
  0
ARC
  8
_1-2_
  6
CONTINUOUS
 62
    6
 10
245.75336488551753
 20
147.93696211697198
 40
0.5
 50
216.59041666293757
 51
281.36642136727284
  0
ARC
  8
_1-2_
  6
CONTINUOUS
 62
    6
 10
245.75336488551753
 20
148.93696211697198
 40
0.5
 50
216.59041666293757
 51
281.36642136727284
  0
ARC
  8
_1-2_
  6
CONTINUOUS
 62
    6
 10
244.95044769651608
 20
148.34087153022693
 40
0.5
 50
36.590416662937571
 51
101.36642136727282
  0
ARC
  8
_1-2_
  6
CONTINUOUS
 62
    6
 10
244.95044769651608
 20
147.34087153022693
 40
0.5
 50
36.590416662937571
 51
101.36642136727282
  0
LINE
  8
_1-2_
  6
CONTINUOUS
 62
    6
 10
244.8519062910168
 20
161.13891682359946
 11
244.8519062910168
 21
148.83106495266571
  0
LINE
  8
_1-2_
  6
CONTINUOUS
 62
    6
 10
244.8519062910168
 20
147.83106495266571
 11
244.8519062910168
 21
136.13891682359946
  0
LINE
  8
_1-2_
  6
CONTINUOUS
 62
    6
 10
245.8519062910168
 20
161.13891682359946
 11
245.8519062910168
 21
148.4467686945332
  0
LINE
  8
_1-2_
  6
CONTINUOUS
 62
    6
 10
245.8519062910168
 20
147.4467686945332
 11
245.8519062910168
 21
136.13891682359946
  0
CIRCLE
  8
_1-2_
  6
CONTINUOUS
 62
    6
 10
197.8519062910168
 20
193.63891682359946
 40
0.5
  0
LINE
  8
_1-2_
  6
CONTINUOUS
 62
    6
 10
197.3519062910168
 20
161.13891682359946
 11
198.3519062910168
 21
161.13891682359946
  0
ARC
  8
_1-2_
  6
CONTINUOUS
 62
    6
 10
198.25336488551753
 20
147.93696211697198
 40
0.5
 50
216.59041666293757
 51
281.36642136727284
  0
ARC
  8
_1-2_
  6
CONTINUOUS
 62
    6
 10
198.25336488551753
 20
148.93696211697198
 40
0.5
 50
216.59041666293757
 51
281.36642136727284
  0
ARC
  8
_1-2_
  6
CONTINUOUS
 62
    6
 10
197.45044769651608
 20
148.34087153022693
 40
0.5
 50
36.590416662937571
 51
101.36642136727282
  0
ARC
  8
_1-2_
  6
CONTINUOUS
 62
    6
 10
197.45044769651608
 20
147.34087153022693
 40
0.5
 50
36.590416662937571
 51
101.36642136727282
  0
LINE
  8
_1-2_
  6
CONTINUOUS
 62
    6
 10
197.3519062910168
 20
161.13891682359946
 11
197.3519062910168
 21
148.83106495266571
  0
LINE
  8
_1-2_
  6
CONTINUOUS
 62
    6
 10
197.3519062910168
 20
147.83106495266571
 11
197.3519062910168
 21
136.13891682359946
  0
LINE
  8
_1-2_
  6
CONTINUOUS
 62
    6
 10
198.3519062910168
 20
161.13891682359946
 11
198.3519062910168
 21
148.4467686945332
  0
LINE
  8
_1-2_
  6
CONTINUOUS
 62
    6
 10
198.3519062910168
 20
147.4467686945332
 11
198.3519062910168
 21
136.13891682359946
  0
LINE
  8
_1-2_
  6
CONTINUOUS
 62
    6
 10
240.8519062910168
 20
116.13891682359946
 11
249.8519062910168
 21
116.13891682359946
  0
LINE
  8
_1-2_
  6
CONTINUOUS
 62
    6
 10
249.8519062910168
 20
136.13891682359946
 11
249.8519062910168
 21
116.13891682359946
  0
LINE
  8
_1-2_
  6
CONTINUOUS
 62
    6
 10
240.8519062910168
 20
136.13891682359946
 11
249.8519062910168
 21
136.13891682359946
  0
LINE
  8
_1-2_
  6
CONTINUOUS
 62
    6
 10
240.8519062910168
 20
136.13891682359946
 11
240.8519062910168
 21
116.13891682359946
  0
LINE
  8
_1-2_
  6
CONTINUOUS
 62
    6
 10
248.3519062910168
 20
149.13891682359946
 11
248.3519062910168
 21
136.13891682359946
  0
LINE
  8
_1-2_
  6
CONTINUOUS
 62
    6
 10
248.3519062910168
 20
149.13891682359946
 11
248.8519062910168
 21
149.13891682359946
  0
LINE
  8
_1-2_
  6
CONTINUOUS
 62
    6
 10
248.8519062910168
 20
149.13891682359946
 11
248.8519062910168
 21
136.13891682359946
  0
LINE
  8
_1-2_
  6
DASHED1
 62
    4
 10
197.13938027338494
 20
123.93434714780047
 11
197.13938027338494
 21
127.93434714780047
  0
LINE
  8
_1-2_
  6
DASHED1
 62
    4
 10
183.13938027338494
 20
123.93434714780047
 11
183.13938027338494
 21
127.93434714780047
  0
LINE
  8
_1-2_
  6
DASHED1
 62
    4
 10
183.13938027338494
 20
123.93434714780047
 11
197.13938027338494
 21
123.93434714780047
  0
LINE
  8
_1-2_
  6
DASHED1
 62
    4
 10
183.13938027338494
 20
127.93434714780047
 11
197.13938027338494
 21
127.93434714780047
  0
LINE
  8
_1-2_
  6
CONTINUOUS
 62
    6
 10
200.8519062910168
 20
136.13891682359946
 11
200.8519062910168
 21
116.13891682359946
  0
LINE
  8
_1-2_
  6
CONTINUOUS
 62
    6
 10
200.8519062910168
 20
116.13891682359946
 11
178.8519062910168
 21
116.13891682359946
  0
LINE
  8
_1-2_
  6
CONTINUOUS
 62
    6
 10
200.8519062910168
 20
136.13891682359946
 11
178.8519062910168
 21
136.13891682359946
  0
LINE
  8
_1-2_
  6
CONTINUOUS
 62
    6
 10
178.8519062910168
 20
136.13891682359946
 11
178.8519062910168
 21
116.13891682359946
  0
LINE
  8
_1-3_ADD_LINE
  6
CENTER1
 62
    7
 10
185.95479658463086
 20
145.13891682359946
 11
180.58011049723757
 21
145.13891682359946
  0
LINE
  8
_1-3_ADD_LINE
  6
CENTER1
 62
    7
 10
183.3519062910168
 20
148.32973380210947
 11
183.3519062910168
 21
142.82395781014566
  0
CIRCLE
  8
_1-2_
  6
CONTINUOUS
 62
    6
 10
183.3519062910168
 20
145.13891682359946
 40
2
  0
LINE
  8
_1-2_
  6
CONTINUOUS
 62
    6
 10
179.8519062910168
 20
148.63891682359946
 11
179.8519062910168
 21
136.13891682359946
  0
ARC
  8
_1-2_
  6
CONTINUOUS
 62
    6
 10
180.3519062910168
 20
148.63891682359946
 40
0.5
 50
90
 51
180
  0
LINE
  8
_1-2_
  6
CONTINUOUS
 62
    6
 10
186.3519062910168
 20
149.13891682359946
 11
180.3519062910168
 21
149.13891682359946
  0
LINE
  8
_1-2_
  6
CONTINUOUS
 62
    6
 10
186.8519062910168
 20
148.63891682359946
 11
186.8519062910168
 21
136.13891682359946
  0
ARC
  8
_1-2_
  6
CONTINUOUS
 62
    6
 10
186.3519062910168
 20
148.63891682359946
 40
0.5
 50
0
 51
90.000000000000014
  0
LINE
  8
_1-1_
  6
CONTINUOUS
 62
    4
 10
198.3519062910168
 20
158.11439599745819
 11
198.73994734407179
 21
160.07639093658111
  0
LINE
  8
_1-1_
  6
CONTINUOUS
 62
    4
 10
198.3519062910168
 20
158.11439599745819
 11
199.66895717023516
 21
159.61951293030765
  0
LINE
  8
_1-1_
  6
CONTINUOUS
 62
    4
 10
203.06269036771474
 20
167.79609169690315
 11
233.77389076952289
 21
167.79609169690315
  0
TEXT
  8
_1-1_
 62
    7
 10
204.03456379815171
 20
172.84983353517535
 40
3
 41
1
 50
0
  1
耐熱ビニール電線(赤)
  0
LINE
  8
_1-1_
  6
CONTINUOUS
 62
    4
 10
198.38593086153918
 20
158.28642943218151
 11
203.06269036771474
 21
167.79609169690315
  0
TEXT
  8
_1-1_
 62
    7
 10
204.74261099950803
 20
168.62759073288362
 40
3
 41
1
 50
0
  1
0.75mm
  0
TEXT
  8
_1-1_
 62
    4
 10
215.37263949791662
 20
170.05505465201139
 40
2
 41
1
 50
0
  1
2
  0
LINE
  8
_1-1_
  6
CONTINUOUS
 62
    4
 10
211.8519062910168
 20
116.13891682359946
 11
211.8519062910168
 21
136.13891682359946
  0
LINE
  8
_1-1_
  6
CONTINUOUS
 62
    4
 10
211.8519062910168
 20
116.13891682359946
 11
211.33426820081175
 21
118.07076847617759
  0
LINE
  8
_1-1_
  6
CONTINUOUS
 62
    4
 10
211.8519062910168
 20
116.13891682359946
 11
212.36954438122186
 21
118.07076847617759
  0
LINE
  8
_1-1_
  6
CONTINUOUS
 62
    4
 10
211.8519062910168
 20
136.13891682359946
 11
211.33426820081175
 21
134.20706517102133
  0
LINE
  8
_1-1_
  6
CONTINUOUS
 62
    4
 10
211.8519062910168
 20
136.13891682359946
 11
212.36954438122186
 21
134.20706517102133
  0
LINE
  8
_1-1_
  6
CONTINUOUS
 62
    4
 10
211.8519062910168
 20
116.13891682359946
 11
201.8519062910168
 21
116.13891682359946
  0
LINE
  8
_1-1_
  6
CONTINUOUS
 62
    4
 10
211.8519062910168
 20
136.13891682359946
 11
201.8519062910168
 21
136.13891682359946
  0
TEXT
  8
_1-1_
 62
    7
 10
211.3519062910168
 20
124.51391682359946
 40
3
 41
1
 50
90
  1
20
  0
LINE
  8
_1-1_
  6
CONTINUOUS
 62
    4
 10
211.8519062910168
 20
136.13891682359946
 11
211.8519062910168
 21
161.13891682359946
  0
LINE
  8
_1-1_
  6
CONTINUOUS
 62
    4
 10
211.8519062910168
 20
136.13891682359946
 11
211.33426820081175
 21
138.07076847617759
  0
LINE
  8
_1-1_
  6
CONTINUOUS
 62
    4
 10
211.8519062910168
 20
136.13891682359946
 11
212.36954438122186
 21
138.07076847617759
  0
LINE
  8
_1-1_
  6
CONTINUOUS
 62
    4
 10
211.8519062910168
 20
161.13891682359946
 11
211.33426820081178
 21
159.20706517102133
  0
LINE
  8
_1-1_
  6
CONTINUOUS
 62
    4
 10
211.8519062910168
 20
161.13891682359946
 11
212.36954438122186
 21
159.20706517102133
  0
LINE
  8
_1-1_
  6
CONTINUOUS
 62
    4
 10
211.8519062910168
 20
161.13891682359946
 11
201.8519062910168
 21
161.13891682359946
  0
TEXT
  8
_1-1_
 62
    7
 10
211.3519062910168
 20
146.13891682359946
 40
3
 41
1
 50
90
  1
300
  0
LINE
  8
_1-1_
  6
CONTINUOUS
 62
    4
 10
197.8519062910168
 20
164.44224008036161
 11
183.3519062910168
 21
164.44224008036161
  0
LINE
  8
_1-1_
  6
CONTINUOUS
 62
    4
 10
197.8519062910168
 20
164.44224008036161
 11
195.92005463843867
 21
163.92460199015659
  0
LINE
  8
_1-1_
  6
CONTINUOUS
 62
    4
 10
197.8519062910168
 20
164.44224008036161
 11
195.92005463843867
 21
164.95987817056667
  0
LINE
  8
_1-1_
  6
CONTINUOUS
 62
    4
 10
183.3519062910168
 20
164.44224008036161
 11
185.28375794359494
 21
163.92460199015659
  0
LINE
  8
_1-1_
  6
CONTINUOUS
 62
    4
 10
183.3519062910168
 20
164.44224008036161
 11
185.28375794359494
 21
164.95987817056667
  0
TEXT
  8
_1-1_
 62
    7
 10
187.2269062910168
 20
164.94224008036161
 40
3
 41
1
 50
0
  1
14.5
  0
LINE
  8
_1-1_
  6
CONTINUOUS
 62
    4
 10
197.8519062910168
 20
164.44224008036161
 11
197.8519062910168
 21
162.09417378201908
  0
LINE
  8
_1-1_
  6
CONTINUOUS
 62
    4
 10
183.3519062910168
 20
164.44224008036161
 11
183.3519062910168
 21
150.16499246609743
  0
LINE
  8
_1-2_
  6
CONTINUOUS
 62
    6
 10
178.8519062910168
 20
189.13891682359946
 11
178.8519062910168
 21
198.13891682359946
  0
LINE
  8
_1-2_
  6
CONTINUOUS
 62
    6
 10
178.8519062910168
 20
189.13891682359946
 11
200.8519062910168
 21
189.13891682359946
  0
LINE
  8
_1-2_
  6
CONTINUOUS
 62
    6
 10
200.8519062910168
 20
198.13891682359946
 11
200.8519062910168
 21
189.13891682359946
  0
LINE
  8
_1-2_
  6
CONTINUOUS
 62
    6
 10
178.8519062910168
 20
198.13891682359946
 11
200.8519062910168
 21
198.13891682359946
  0
LINE
  8
_1-2_
  6
CONTINUOUS
 62
    6
 10
179.8519062910168
 20
190.13891682359946
 11
179.8519062910168
 21
197.13891682359946
  0
LINE
  8
_1-2_
  6
CONTINUOUS
 62
    6
 10
179.8519062910168
 20
190.13891682359946
 11
199.8519062910168
 21
190.13891682359946
  0
LINE
  8
_1-2_
  6
CONTINUOUS
 62
    6
 10
199.8519062910168
 20
197.13891682359946
 11
199.8519062910168
 21
190.13891682359946
  0
LINE
  8
_1-2_
  6
CONTINUOUS
 62
    6
 10
179.8519062910168
 20
197.13891682359946
 11
199.8519062910168
 21
197.13891682359946
  0
LINE
  8
_1-2_
  6
CONTINUOUS
 62
    6
 10
179.8519062910168
 20
196.63891682359946
 11
186.8519062910168
 21
196.63891682359946
  0
LINE
  8
_1-2_
  6
CONTINUOUS
 62
    6
 10
186.8519062910168
 20
196.63891682359946
 11
186.8519062910168
 21
197.13891682359946
  0
LINE
  8
_1-1_
  6
CONTINUOUS
 62
    4
 10
178.8519062910168
 20
105.13891682359946
 11
200.8519062910168
 21
105.13891682359946
  0
LINE
  8
_1-1_
  6
CONTINUOUS
 62
    4
 10
178.8519062910168
 20
105.13891682359946
 11
180.78375794359494
 21
105.6565549138045
  0
LINE
  8
_1-1_
  6
CONTINUOUS
 62
    4
 10
178.8519062910168
 20
105.13891682359946
 11
180.78375794359494
 21
104.62127873339442
  0
LINE
  8
_1-1_
  6
CONTINUOUS
 62
    4
 10
200.8519062910168
 20
105.13891682359946
 11
198.92005463843867
 21
105.6565549138045
  0
LINE
  8
_1-1_
  6
CONTINUOUS
 62
    4
 10
200.8519062910168
 20
105.13891682359946
 11
198.92005463843867
 21
104.62127873339442
  0
LINE
  8
_1-1_
  6
CONTINUOUS
 62
    4
 10
178.8519062910168
 20
105.13891682359946
 11
178.8519062910168
 21
115.13891682359946
  0
LINE
  8
_1-1_
  6
CONTINUOUS
 62
    4
 10
200.8519062910168
 20
105.13891682359946
 11
200.8519062910168
 21
115.13891682359946
  0
TEXT
  8
_1-1_
 62
    7
 10
188.2269062910168
 20
105.63891682359946
 40
3
 41
1
 50
0
  1
22
  0
LINE
  8
_1-1_
  6
CONTINUOUS
 62
    4
 10
211.8519062910168
 20
189.13891682359946
 11
211.8519062910168
 21
198.13891682359946
  0
LINE
  8
_1-1_
  6
CONTINUOUS
 62
    4
 10
211.8519062910168
 20
189.13891682359946
 11
211.33426820081175
 21
191.07076847617759
  0
LINE
  8
_1-1_
  6
CONTINUOUS
 62
    4
 10
211.8519062910168
 20
189.13891682359946
 11
212.36954438122186
 21
191.07076847617759
  0
LINE
  8
_1-1_
  6
CONTINUOUS
 62
    4
 10
211.8519062910168
 20
198.13891682359946
 11
211.33426820081175
 21
196.20706517102133
  0
LINE
  8
_1-1_
  6
CONTINUOUS
 62
    4
 10
211.8519062910168
 20
198.13891682359946
 11
212.36954438122186
 21
196.20706517102133
  0
LINE
  8
_1-1_
  6
CONTINUOUS
 62
    4
 10
211.8519062910168
 20
189.13891682359946
 11
201.8519062910168
 21
189.13891682359946
  0
LINE
  8
_1-1_
  6
CONTINUOUS
 62
    4
 10
211.8519062910168
 20
198.13891682359946
 11
201.8519062910168
 21
198.13891682359946
  0
TEXT
  8
_1-1_
 62
    7
 10
211.3519062910168
 20
192.88891682359946
 40
3
 41
1
 50
90
  1
9
  0
LINE
  8
_1-1_
  6
CONTINUOUS
 62
    4
 10
179.8519062910168
 20
155.99824208940231
 11
177.92005463843867
 21
155.48060399919726
  0
LINE
  8
_1-1_
  6
CONTINUOUS
 62
    4
 10
179.8519062910168
 20
155.99824208940231
 11
177.92005463843867
 21
156.51588017960736
  0
LINE
  8
_1-1_
  6
CONTINUOUS
 62
    4
 10
186.8519062910168
 20
155.99824208940231
 11
188.78375794359494
 21
155.48060399919726
  0
LINE
  8
_1-1_
  6
CONTINUOUS
 62
    4
 10
186.8519062910168
 20
155.99824208940231
 11
188.78375794359494
 21
156.51588017960734
  0
LINE
  8
_1-1_
  6
CONTINUOUS
 62
    4
 10
179.8519062910168
 20
155.99824208940231
 11
179.8519062910168
 21
149.72350577599195
  0
LINE
  8
_1-1_
  6
CONTINUOUS
 62
    4
 10
186.8519062910168
 20
155.99824208940231
 11
186.8519062910168
 21
149.72350577599195
  0
LINE
  8
_1-1_
  6
CONTINUOUS
 62
    4
 10
167.8519062910168
 20
149.13891682359946
 11
167.8519062910168
 21
136.13891682359946
  0
LINE
  8
_1-1_
  6
CONTINUOUS
 62
    4
 10
167.8519062910168
 20
149.13891682359946
 11
168.36954438122183
 21
147.20706517102133
  0
LINE
  8
_1-1_
  6
CONTINUOUS
 62
    4
 10
167.8519062910168
 20
149.13891682359946
 11
167.33426820081178
 21
147.20706517102133
  0
LINE
  8
_1-1_
  6
CONTINUOUS
 62
    4
 10
167.8519062910168
 20
136.13891682359946
 11
168.36954438122183
 21
138.07076847617759
  0
LINE
  8
_1-1_
  6
CONTINUOUS
 62
    4
 10
167.8519062910168
 20
136.13891682359946
 11
167.33426820081178
 21
138.07076847617759
  0
LINE
  8
_1-1_
  6
CONTINUOUS
 62
    4
 10
167.8519062910168
 20
149.13891682359946
 11
177.8519062910168
 21
149.13891682359946
  0
TEXT
  8
_1-1_
 62
    7
 10
167.3519062910168
 20
141.01391682359946
 40
3
 41
1
 50
90
  1
13
  0
LINE
  8
_1-1_
  6
CONTINUOUS
 62
    4
 10
173.67403314917127
 20
145.13891682359946
 11
173.67403314917127
 21
136.13891682359946
  0
LINE
  8
_1-1_
  6
CONTINUOUS
 62
    4
 10
173.67403314917127
 20
145.13891682359946
 11
174.19167123937632
 21
143.20706517102133
  0
LINE
  8
_1-1_
  6
CONTINUOUS
 62
    4
 10
173.67403314917127
 20
145.13891682359946
 11
173.15639505896624
 21
143.20706517102133
  0
LINE
  8
_1-1_
  6
CONTINUOUS
 62
    4
 10
173.67403314917127
 20
136.13891682359946
 11
174.19167123937632
 21
138.07076847617759
  0
LINE
  8
_1-1_
  6
CONTINUOUS
 62
    4
 10
173.67403314917127
 20
136.13891682359946
 11
173.15639505896624
 21
138.07076847617759
  0
TEXT
  8
_1-1_
 62
    7
 10
173.17403314917127
 20
139.88891682359946
 40
3
 41
1
 50
90
  1
9
  0
LINE
  8
_1-1_
  6
CONTINUOUS
 62
    4
 10
173.67403314917127
 20
145.13891682359946
 11
177.8519062910168
 21
145.13891682359946
  0
LINE
  8
_1-1_
  6
CONTINUOUS
 62
    4
 10
167.8519062910168
 20
136.13891682359946
 11
177.8519062910168
 21
136.13891682359946
  0
LINE
  8
_1-1_
  6
CONTINUOUS
 62
    4
 10
173.67403314917127
 20
136.13891682359946
 11
177.8519062910168
 21
136.13891682359946
  0
LINE
  8
_1-1_
  6
CONTINUOUS
 62
    4
 10
184.75408820210427
 20
146.71467300906025
 11
189.2292547678982
 21
151.18983957485418
  0
LINE
  8
_1-1_
  6
CONTINUOUS
 62
    4
 10
184.75408820210427
 20
146.71467300906025
 11
185.75408820210427
 21
148.44672381662912
  0
LINE
  8
_1-1_
  6
CONTINUOUS
 62
    4
 10
184.75408820210427
 20
146.71467300906025
 11
186.48613900967317
 21
147.71467300906025
  0
LINE
  8
_1-1_
  6
CONTINUOUS
 62
    4
 10
189.2292547678982
 20
151.18983957485418
 11
196.33972600729257
 21
151.18983957485418
  0
TEXT
  8
_1-1_
 62
    4
 10
189.78784807608264
 20
151.668531932658
 40
2.5
 41
1
 50
0
  1
φ4穴
  0
TEXT
  8
_0-1_
 62
    7
 10
183.54696132596683
 20
14.842541436464074
 40
4
 41
1
 50
0
  1
SQ23150RF
  0
TEXT
  8
_1-1_
 62
    4
 10
159.41436464088397
 20
173.56077348066299
 40
2.5
 41
1
 50
0
  1
端子0.8t銅＋スズメッキ
  0
LINE
  8
_1-1_
  6
CONTINUOUS
 62
    4
 10
158.06956303365143
 20
173.03038674033149
 11
188.08689100954294
 21
173.03038674033149
  0
LINE
  8
_1-1_
  6
CONTINUOUS
 62
    4
 10
179.84178804620794
 20
149.19688598694123
 11
158.06956303365143
 21
173.03038674033149
  0
LINE
  8
_1-1_
  6
CONTINUOUS
 62
    4
 10
179.84178804620794
 20
149.19688598694123
 11
178.15665532525432
 21
150.27407107445939
  0
LINE
  8
_1-1_
  6
CONTINUOUS
 62
    4
 10
179.84178804620794
 20
149.19688598694123
 11
178.92101284487279
 21
150.97232199778651
  0
TEXT
  8
_1-1_
 62
    7
 10
175.35572576594677
 20
156.49824208940231
 40
3
 41
1
 50
0
  1
7
  0
LINE
  8
_1-1_
  6
CONTINUOUS
 62
    4
 10
174.43093922651934
 20
155.99824208940231
 11
190.21295831240582
 21
155.99824208940231
  0
TEXT
  8
_1-2_
 62
    7
 10
187.37287192504388
 20
124.66919101703523
 40
2.5
 41
1
 50
0
  1
型式
  0
ENDSEC
  0
EOF
